  0
SECTION
  2
HEADER
  9
$ACADVER
  1
AC1032
  9
$ACADMAINTVER
 90
      157
  9
$DWGCODEPAGE
  3
ANSI_1252
  9
$LASTSAVEDBY
  1
Kevin.Lindstrom
  9
$REQUIREDVERSIONS
160
                 0
  9
$INSBASE
 10
0.0
 20
0.0
 30
0.0
  9
$EXTMIN
 10
26.08966177234966
 20
14.57666265527328
 30
0.0
  9
$EXTMAX
 10
34.77030125145369
 20
24.38221328511201
 30
0.0
  9
$LIMMIN
 10
0.0
 20
0.0
  9
$LIMMAX
 10
12.0
 20
9.0
  9
$ORTHOMODE
 70
     0
  9
$REGENMODE
 70
     1
  9
$FILLMODE
 70
     1
  9
$QTEXTMODE
 70
     0
  9
$MIRRTEXT
 70
     0
  9
$LTSCALE
 40
1.0
  9
$ATTMODE
 70
     1
  9
$TEXTSIZE
 40
0.2
  9
$TRACEWID
 40
0.05
  9
$TEXTSTYLE
  7
Standard
  9
$CLAYER
  8
0
  9
$CELTYPE
  6
ByLayer
  9
$CECOLOR
 62
   256
  9
$CELTSCALE
 40
1.0
  9
$DISPSILH
 70
     0
  9
$DIMSCALE
 40
1.0
  9
$DIMASZ
 40
0.12
  9
$DIMEXO
 40
0.05
  9
$DIMDLI
 40
0.5
  9
$DIMRND
 40
0.0
  9
$DIMDLE
 40
0.0
  9
$DIMEXE
 40
0.1
  9
$DIMTP
 40
0.1
  9
$DIMTM
 40
0.1
  9
$DIMTXT
 40
0.12
  9
$DIMCEN
 40
0.0
  9
$DIMTSZ
 40
0.0
  9
$DIMTOL
 70
     0
  9
$DIMLIM
 70
     0
  9
$DIMTIH
 70
     1
  9
$DIMTOH
 70
     1
  9
$DIMSE1
 70
     0
  9
$DIMSE2
 70
     0
  9
$DIMTAD
 70
     0
  9
$DIMZIN
 70
     7
  9
$DIMBLK
  1

  9
$DIMASO
 70
     1
  9
$DIMSHO
 70
     1
  9
$DIMPOST
  1

  9
$DIMAPOST
  1
mm
  9
$DIMALT
 70
     0
  9
$DIMALTD
 70
     2
  9
$DIMALTF
 40
25.4
  9
$DIMLFAC
 40
1.0
  9
$DIMTOFL
 70
     0
  9
$DIMTVP
 40
0.0
  9
$DIMTIX
 70
     0
  9
$DIMSOXD
 70
     0
  9
$DIMSAH
 70
     0
  9
$DIMBLK1
  1

  9
$DIMBLK2
  1

  9
$DIMSTYLE
  2
AM_ANSI
  9
$DIMCLRD
 70
   256
  9
$DIMCLRE
 70
   256
  9
$DIMCLRT
 70
     2
  9
$DIMTFAC
 40
0.71
  9
$DIMGAP
 40
0.06
  9
$DIMJUST
 70
     0
  9
$DIMSD1
 70
     0
  9
$DIMSD2
 70
     0
  9
$DIMTOLJ
 70
     1
  9
$DIMTZIN
 70
     7
  9
$DIMALTZ
 70
     0
  9
$DIMALTTZ
 70
     0
  9
$DIMUPT
 70
     0
  9
$DIMDEC
 70
     4
  9
$DIMTDEC
 70
     4
  9
$DIMALTU
 70
     2
  9
$DIMALTTD
 70
     4
  9
$DIMTXSTY
  7
Standard
  9
$DIMAUNIT
 70
     0
  9
$DIMADEC
 70
     0
  9
$DIMALTRND
 40
0.0
  9
$DIMAZIN
 70
     2
  9
$DIMDSEP
 70
    46
  9
$DIMATFIT
 70
     3
  9
$DIMFRAC
 70
     0
  9
$DIMLDRBLK
  1

  9
$DIMLUNIT
 70
     2
  9
$DIMLWD
 70
    -1
  9
$DIMLWE
 70
    -1
  9
$DIMTMOVE
 70
     0
  9
$DIMFXL
 40
1.0
  9
$DIMFXLON
 70
     0
  9
$DIMJOGANG
 40
0.7853981633974483
  9
$DIMTFILL
 70
     0
  9
$DIMTFILLCLR
 70
     0
  9
$DIMARCSYM
 70
     1
  9
$DIMLTYPE
  6
ByBlock
  9
$DIMLTEX1
  6
ByBlock
  9
$DIMLTEX2
  6
ByBlock
  9
$DIMTXTDIRECTION
 70
     0
  9
$LUNITS
 70
     2
  9
$LUPREC
 70
     4
  9
$SKETCHINC
 40
0.1
  9
$FILLETRAD
 40
0.0
  9
$AUNITS
 70
     0
  9
$AUPREC
 70
     0
  9
$MENU
  1
.
  9
$ELEVATION
 40
0.0
  9
$PELEVATION
 40
0.0
  9
$THICKNESS
 40
0.0
  9
$LIMCHECK
 70
     0
  9
$CHAMFERA
 40
0.0
  9
$CHAMFERB
 40
0.0
  9
$CHAMFERC
 40
0.0
  9
$CHAMFERD
 40
0.0
  9
$SKPOLY
 70
     0
  9
$TDCREATE
 40
2458344.483437500
  9
$TDUCREATE
 40
2458344.650104167
  9
$TDUPDATE
 40
2459004.998159723
  9
$TDUUPDATE
 40
2459005.164826389
  9
$TDINDWG
 40
1.6443055556
  9
$TDUSRTIMER
 40
1.6443055556
  9
$USRTIMER
 70
     1
  9
$ANGBASE
 50
0.0
  9
$ANGDIR
 70
     0
  9
$PDMODE
 70
     0
  9
$PDSIZE
 40
0.0
  9
$PLINEWID
 40
0.0
  9
$SPLFRAME
 70
     0
  9
$SPLINETYPE
 70
     6
  9
$SPLINESEGS
 70
     8
  9
$HANDSEED
  5
202F
  9
$SURFTAB1
 70
     6
  9
$SURFTAB2
 70
     6
  9
$SURFTYPE
 70
     6
  9
$SURFU
 70
     6
  9
$SURFV
 70
     6
  9
$UCSBASE
  2

  9
$UCSNAME
  2

  9
$UCSORG
 10
0.0
 20
0.0
 30
0.0
  9
$UCSXDIR
 10
1.0
 20
0.0
 30
0.0
  9
$UCSYDIR
 10
0.0
 20
1.0
 30
0.0
  9
$UCSORTHOREF
  2

  9
$UCSORTHOVIEW
 70
     0
  9
$UCSORGTOP
 10
0.0
 20
0.0
 30
0.0
  9
$UCSORGBOTTOM
 10
0.0
 20
0.0
 30
0.0
  9
$UCSORGLEFT
 10
0.0
 20
0.0
 30
0.0
  9
$UCSORGRIGHT
 10
0.0
 20
0.0
 30
0.0
  9
$UCSORGFRONT
 10
0.0
 20
0.0
 30
0.0
  9
$UCSORGBACK
 10
0.0
 20
0.0
 30
0.0
  9
$PUCSBASE
  2

  9
$PUCSNAME
  2

  9
$PUCSORG
 10
0.0
 20
0.0
 30
0.0
  9
$PUCSXDIR
 10
1.0
 20
0.0
 30
0.0
  9
$PUCSYDIR
 10
0.0
 20
1.0
 30
0.0
  9
$PUCSORTHOREF
  2

  9
$PUCSORTHOVIEW
 70
     0
  9
$PUCSORGTOP
 10
0.0
 20
0.0
 30
0.0
  9
$PUCSORGBOTTOM
 10
0.0
 20
0.0
 30
0.0
  9
$PUCSORGLEFT
 10
0.0
 20
0.0
 30
0.0
  9
$PUCSORGRIGHT
 10
0.0
 20
0.0
 30
0.0
  9
$PUCSORGFRONT
 10
0.0
 20
0.0
 30
0.0
  9
$PUCSORGBACK
 10
0.0
 20
0.0
 30
0.0
  9
$USERI1
 70
     0
  9
$USERI2
 70
     0
  9
$USERI3
 70
     0
  9
$USERI4
 70
     0
  9
$USERI5
 70
     0
  9
$USERR1
 40
0.0
  9
$USERR2
 40
0.0
  9
$USERR3
 40
0.0
  9
$USERR4
 40
0.0
  9
$USERR5
 40
0.0
  9
$WORLDVIEW
 70
     1
  9
$SHADEDGE
 70
     3
  9
$SHADEDIF
 70
    70
  9
$TILEMODE
 70
     0
  9
$MAXACTVP
 70
    64
  9
$PINSBASE
 10
0.0
 20
0.0
 30
0.0
  9
$PLIMCHECK
 70
     0
  9
$PEXTMIN
 10
0.3093692292309651
 20
0.3194843464751703
 30
0.0
  9
$PEXTMAX
 10
7.812076467645051
 20
10.30808073276256
 30
0.0
  9
$PLIMMIN
 10
-0.1893044634805872
 20
-0.1862136705895949
  9
$PLIMMAX
 10
8.310695296223522
 20
10.81378608911451
  9
$UNITMODE
 70
     0
  9
$VISRETAIN
 70
     1
  9
$PLINEGEN
 70
     0
  9
$PSLTSCALE
 70
     1
  9
$TREEDEPTH
 70
  3020
  9
$CMLSTYLE
  2
Standard
  9
$CMLJUST
 70
     0
  9
$CMLSCALE
 40
1.0
  9
$PROXYGRAPHICS
 70
     1
  9
$MEASUREMENT
 70
     0
  9
$CELWEIGHT
370
    -1
  9
$ENDCAPS
280
     0
  9
$JOINSTYLE
280
     0
  9
$LWDISPLAY
290
     0
  9
$INSUNITS
 70
     1
  9
$HYPERLINKBASE
  1

  9
$STYLESHEET
  1

  9
$XEDIT
290
     1
  9
$CEPSNTYPE
380
     0
  9
$PSTYLEMODE
290
     1
  9
$FINGERPRINTGUID
  2
{2C240EB9-3B38-774E-B9CE-5B6D3827AB51}
  9
$VERSIONGUID
  2
{E858B231-E080-5B4D-BA85-E90568BD1A2A}
  9
$EXTNAMES
290
     1
  9
$PSVPSCALE
 40
0.0
  9
$OLESTARTUP
290
     0
  9
$SORTENTS
280
   127
  9
$INDEXCTL
280
     0
  9
$HIDETEXT
280
     1
  9
$XCLIPFRAME
280
     2
  9
$HALOGAP
280
     0
  9
$OBSCOLOR
 70
   257
  9
$OBSLTYPE
280
     0
  9
$INTERSECTIONDISPLAY
280
     0
  9
$INTERSECTIONCOLOR
 70
   257
  9
$DIMASSOC
280
     2
  9
$PROJECTNAME
  1

  9
$CAMERADISPLAY
290
     0
  9
$LENSLENGTH
 40
50.0
  9
$CAMERAHEIGHT
 40
0.0
  9
$STEPSPERSEC
 40
2.0
  9
$STEPSIZE
 40
6.0
  9
$3DDWFPREC
 40
2.0
  9
$PSOLWIDTH
 40
0.25
  9
$PSOLHEIGHT
 40
4.0
  9
$LOFTANG1
 40
1.570796326794896
  9
$LOFTANG2
 40
1.570796326794896
  9
$LOFTMAG1
 40
0.0
  9
$LOFTMAG2
 40
0.0
  9
$LOFTPARAM
 70
     7
  9
$LOFTNORMALS
280
     1
  9
$LATITUDE
 40
37.795
  9
$LONGITUDE
 40
-122.394
  9
$NORTHDIRECTION
 40
0.0
  9
$TIMEZONE
 70
 -8000
  9
$LIGHTGLYPHDISPLAY
280
     1
  9
$TILEMODELIGHTSYNCH
280
     1
  9
$CMATERIAL
347
96
  9
$SOLIDHIST
280
     0
  9
$SHOWHIST
280
     1
  9
$DWFFRAME
280
     2
  9
$DGNFRAME
280
     0
  9
$REALWORLDSCALE
290
     1
  9
$INTERFERECOLOR
 62
     1
  9
$INTERFEREOBJVS
345
A3
  9
$INTERFEREVPVS
346
A0
  9
$CSHADOW
280
     0
  9
$SHADOWPLANELOCATION
 40
0.0
  0
ENDSEC
  0
SECTION
  2
CLASSES
  0
CLASS
  1
ACDBDICTIONARYWDFLT
  2
AcDbDictionaryWithDefault
  3
ObjectDBX Classes
 90
        0
 91
        1
280
     0
281
     0
  0
CLASS
  1
ACDBPLACEHOLDER
  2
AcDbPlaceHolder
  3
ObjectDBX Classes
 90
        0
 91
        1
280
     0
281
     0
  0
CLASS
  1
LAYOUT
  2
AcDbLayout
  3
ObjectDBX Classes
 90
        0
 91
        2
280
     0
281
     0
  0
CLASS
  1
DICTIONARYVAR
  2
AcDbDictionaryVar
  3
ObjectDBX Classes
 90
        0
 91
       13
280
     0
281
     0
  0
CLASS
  1
TABLESTYLE
  2
AcDbTableStyle
  3
ObjectDBX Classes
 90
     4095
 91
        1
280
     0
281
     0
  0
CLASS
  1
MATERIAL
  2
AcDbMaterial
  3
ObjectDBX Classes
 90
     1153
 91
        3
280
     0
281
     0
  0
CLASS
  1
VISUALSTYLE
  2
AcDbVisualStyle
  3
ObjectDBX Classes
 90
     4095
 91
       24
280
     0
281
     0
  0
CLASS
  1
SCALE
  2
AcDbScale
  3
ObjectDBX Classes
 90
     1153
 91
       20
280
     0
281
     0
  0
CLASS
  1
MLEADERSTYLE
  2
AcDbMLeaderStyle
  3
ACDB_MLEADERSTYLE_CLASS
 90
     4095
 91
        2
280
     0
281
     0
  0
CLASS
  1
CELLSTYLEMAP
  2
AcDbCellStyleMap
  3
ObjectDBX Classes
 90
     1152
 91
        1
280
     0
281
     0
  0
CLASS
  1
EXACXREFPANELOBJECT
  2
ExAcXREFPanelObject
  3
EXAC_ESW
 90
     1025
 91
        1
280
     0
281
     0
  0
CLASS
  1
NPOCOLLECTION
  2
AcDbImpNonPersistentObjectsCollection
  3
ObjectDBX Classes
 90
     1153
 91
        1
280
     0
281
     0
  0
CLASS
  1
LAYER_INDEX
  2
AcDbLayerIndex
  3
ObjectDBX Classes
 90
        0
 91
        0
280
     0
281
     0
  0
CLASS
  1
SPATIAL_INDEX
  2
AcDbSpatialIndex
  3
ObjectDBX Classes
 90
        0
 91
        0
280
     0
281
     0
  0
CLASS
  1
IDBUFFER
  2
AcDbIdBuffer
  3
ObjectDBX Classes
 90
        0
 91
        0
280
     0
281
     0
  0
CLASS
  1
ACDBSECTIONVIEWSTYLE
  2
AcDbSectionViewStyle
  3
ObjectDBX Classes
 90
     1025
 91
        2
280
     0
281
     0
  0
CLASS
  1
ACDBDETAILVIEWSTYLE
  2
AcDbDetailViewStyle
  3
ObjectDBX Classes
 90
     1025
 91
        2
280
     0
281
     0
  0
CLASS
  1
ACME_DOCUMENT
  2
AcMeDbDoc
  3
AcMeServices
 90
     1024
 91
        0
280
     0
281
     0
  0
CLASS
  1
AMGSETTINGSOBJ
  2
AmgSettingsObj
  3
"AcadM|Product Description: AutoCAD Mechanical|Company: Autodesk, Inc."
 90
     1024
 91
        3
280
     0
281
     0
  0
CLASS
  1
ACMESCOPE
  2
AcMeScope
  3
AcMeServices
 90
     1024
 91
        1
280
     0
281
     0
  0
CLASS
  1
ACMECOMMANDHISTORY
  2
AcMeCommandHistory
  3
AcMeServices
 90
     1024
 91
        1
280
     0
281
     0
  0
CLASS
  1
ACIMSYSVARMAN
  2
AcImSysVarManager
  3
AcMeServices
 90
     1024
 91
        3
280
     0
281
     0
  0
CLASS
  1
ACIMINTSYSVAR
  2
AcImIntSysVar
  3
AcMeServices
 90
     1024
 91
        2
280
     0
281
     0
  0
CLASS
  1
ACMESTATEMGR
  2
AcMeStateMgr
  3
AcMeServices
 90
     1024
 91
        1
280
     0
281
     0
  0
CLASS
  1
ACDBENTITYCACHE
  2
AcMeEntityCache
  3
AcMeServices
 90
     1024
 91
        0
280
     0
281
     0
  0
CLASS
  1
ACGREFMASTER
  2
AcGrefMaster
  3
AcAttribServices
 90
     1024
 91
        1
280
     0
281
     0
  0
CLASS
  1
ACME_DATABASE
  2
AcMeDbDatabase
  3
AcMeServices
 90
     1024
 91
        0
280
     0
281
     0
  0
CLASS
  1
ACRFINSADJUSTERMGR
  2
AcRfInsAdjusterMgr
  3
AcMeServices
 90
     1024
 91
        0
280
     0
281
     0
  0
CLASS
  1
ACGREFACADMASTER
  2
AcGrefacadMaster
  3
AcGrefServices
 90
     1024
 91
        1
280
     0
281
     0
  0
CLASS
  1
AMIMASTER
  2
AmiMaster
  3
AmiServices
 90
     1024
 91
        1
280
     0
281
     0
  0
CLASS
  1
AMDTMENUSTATEMGR
  2
AmdtMenuStateMgr
  3
McadcomServices
 90
     1024
 91
        0
280
     0
281
     0
  0
CLASS
  1
AMDTMCOMMENUSTATE
  2
AmdtMcomMenuState
  3
McadcomServices
 90
     1024
 91
        0
280
     0
281
     0
  0
CLASS
  1
MAPIAMMOUDLE
  2
MApiAmModule
  3
MApiAmServices
 90
     1024
 91
        1
280
     0
281
     0
  0
CLASS
  1
ACIMSTRSYSVAR
  2
AcImStrSysVar
  3
AcMeServices
 90
     1024
 91
        5
280
     0
281
     0
  0
CLASS
  1
AMDTAMMENUSTATE
  2
AmdtAmMenuState
  3
DesignerAssemblies_arx
 90
     1024
 91
        0
280
     0
281
     0
  0
CLASS
  1
ACAMPROJECT
  2
AcAmProject
  3
DesignerAssemblies
 90
     1024
 91
        1
280
     0
281
     0
  0
CLASS
  1
ACAMGRCOMPDEF
  2
AcAmGrCompDef
  3
DesignerAssemblies
 90
     1024
 91
        1
280
     0
281
     0
  0
CLASS
  1
ACAMCOMPDEF
  2
AcAmCompDef
  3
DesignerAssemblies
 90
     1024
 91
        1
280
     0
281
     0
  0
CLASS
  1
ACAMCOMPDEFMGR
  2
AcAmCompDefMgr
  3
DesignerAssemblies
 90
     1024
 91
        1
280
     0
281
     0
  0
CLASS
  1
AMCONTEXTMGR
  2
AcAmContextMgr
  3
DesignerAssemblies
 90
     1024
 91
        1
280
     0
281
     0
  0
CLASS
  1
ACAMCONTEXTMODELER
  2
AcAmContextModeler
  3
DesignerAssemblies
 90
     1024
 91
        1
280
     0
281
     0
  0
CLASS
  1
ACMDATADICTIONARY
  2
AcmDataDictionary
  3
"AcmSymBB|Product Description: AutoCAD Mechanical|Company: Autodesk, Inc."
 90
     1024
 91
        1
280
     0
281
     0
  0
CLASS
  1
ACMSTANDARDANSI
  2
AcmStandardANSI
  3
"Amdt_StdImp|Product Description: AutoCAD Mechanical|Company: Autodesk, Inc."
 90
     1024
 91
        1
280
     0
281
     0
  0
CLASS
  1
ACMSURFSTANDARDANSI
  2
AcmSurfTextStdANSI
  3
"Amdt_StdImp|Product Description: AutoCAD Mechanical|Company: Autodesk, Inc."
 90
     1024
 91
        1
280
     0
281
     0
  0
CLASS
  1
ACMFCFSTANDARDANSI
  2
AcmFCFStdANSI
  3
"Amdt_StdImp|Product Description: AutoCAD Mechanical|Company: Autodesk, Inc."
 90
     1024
 91
        1
280
     0
281
     0
  0
CLASS
  1
ACMWELDSTANDARDANSI
  2
AcmWeldingStdANSI
  3
"Amdt_StdImp|Product Description: AutoCAD Mechanical|Company: Autodesk, Inc."
 90
     1024
 91
        1
280
     0
281
     0
  0
CLASS
  1
ACMIDSTANDARDANSI
  2
AcmIdStdANSI
  3
"Amdt_StdImp|Product Description: AutoCAD Mechanical|Company: Autodesk, Inc."
 90
     1024
 91
        1
280
     0
281
     0
  0
CLASS
  1
ACMDATUMSTANDARDANSI
  2
AcmDatumStdANSI
  3
"Amdt_StdImp|Product Description: AutoCAD Mechanical|Company: Autodesk, Inc."
 90
     1024
 91
        1
280
     0
281
     0
  0
CLASS
  1
ACMBOMSTANDARDANSI
  2
AcmBOMStdANSI
  3
"Amdt_StdImp|Product Description: AutoCAD Mechanical|Company: Autodesk, Inc."
 90
     1024
 91
        1
280
     0
281
     0
  0
CLASS
  1
ACMDETAILSTANDARDANSI
  2
AmdtDetailSymStdANSI
  3
"Amdt_StdImp|Product Description: AutoCAD Mechanical|Company: Autodesk, Inc."
 90
     1024
 91
        1
280
     0
281
     0
  0
CLASS
  1
ACMSECTIONSTANDARDANSI
  2
AmdtSectionSymStdANSI
  3
"Amdt_StdImp|Product Description: AutoCAD Mechanical|Company: Autodesk, Inc."
 90
     1024
 91
        1
280
     0
281
     0
  0
CLASS
  1
ACMCENTERLINESTANDARDANSI
  2
AmdtCenterLineStdANSI
  3
"Amdt_StdImp|Product Description: AutoCAD Mechanical|Company: Autodesk, Inc."
 90
     1024
 91
        1
280
     0
281
     0
  0
CLASS
  1
ACMTHREADLINESTANDARDANSI
  2
AmdtThreadLineStdANSI
  3
"Amdt_StdImp|Product Description: AutoCAD Mechanical|Company: Autodesk, Inc."
 90
     1024
 91
        1
280
     0
281
     0
  0
CLASS
  1
ACMNOTESTANDARDANSI
  2
AmdtNoteStdANSI
  3
"Amdt_StdImp|Product Description: AutoCAD Mechanical|Company: Autodesk, Inc."
 90
     1024
 91
        1
280
     0
281
     0
  0
CLASS
  1
ACMTAPERSTANDARDANSI
  2
AcmTaperStdANSI
  3
"Amdt_StdImp|Product Description: AutoCAD Mechanical|Company: Autodesk, Inc."
 90
     1024
 91
        1
280
     0
281
     0
  0
CLASS
  1
ACMANOOTATIONVIEWSTANDARDANSI
  2
AmdtAnViewStdANSI
  3
"Amdt_StdImp|Product Description: AutoCAD Mechanical|Company: Autodesk, Inc."
 90
     1024
 91
        1
280
     0
281
     0
  0
CLASS
  1
ACAMGLAYSTD
  2
AcAmgLayStd
  3
"AmgLay|Product Description: AutoCAD Mechanical|Company: Autodesk, Inc."
 90
     1024
 91
        1
280
     0
281
     0
  0
CLASS
  1
ACAMGDIMSTD
  2
AcAmgDimStd
  3
"AmgDim|Product Description: AutoCAD Mechanical|Company: Autodesk, Inc."
 90
     1024
 91
        1
280
     0
281
     0
  0
CLASS
  1
AMGOBJPROPCFG
  2
AmgObjPropCfg
  3
"AmgLay|Product Description: AutoCAD Mechanical|Company: Autodesk, Inc."
 90
     1024
 91
        1
280
     0
281
     0
  0
CLASS
  1
ACAMGHOLECHARTSTDANSI
  2
AcAmgHoleChartStdANSI
  3
"AmgDim" "Product Description: AutoCAD Mechanical|Company: Autodesk, Inc."
 90
     1024
 91
        1
280
     0
281
     0
  0
CLASS
  1
ACAMGTITLESTD
  2
AcAmgTitleStd
  3
"AmgTitle|Product Description: AutoCAD Mechanical|Company: Autodesk, Inc."
 90
     1024
 91
        1
280
     0
281
     0
  0
CLASS
  1
ACMSECTIONSTANDARDCUSTOM
  2
AmdtSectionSymStdCustom
  3
"Amdt_StdImp|Product Description: AutoCAD Mechanical|Company: Autodesk, Inc."
 90
     1024
 91
        1
280
     0
281
     0
  0
CLASS
  1
ACMDETAILTANDARDCUSTOM
  2
AmdtDetailSymStdCustom
  3
"Amdt_StdImp|Product Description: AutoCAD Mechanical|Company: Autodesk, Inc."
 90
     1024
 91
        1
280
     0
281
     0
  0
CLASS
  1
FIELD
  2
AcDbField
  3
ObjectDBX Classes
 90
     1152
 91
        6
280
     0
281
     0
  0
CLASS
  1
FIELDLIST
  2
AcDbFieldList
  3
ObjectDBX Classes
 90
     1152
 91
        1
280
     0
281
     0
  0
CLASS
  1
AMDTNOTETEMPLATEDB
  2
AmdtNoteTemplateDB
  3
"AcmSymBB" "Product Description: AutoCAD Mechanical|Company: Autodesk, Inc."
 90
     1024
 91
        7
280
     0
281
     0
  0
CLASS
  1
ACAMGRCOMPDEFSET
  2
AcAmGrCompDefSet
  3
DesignerAssemblies
 90
     1024
 91
        0
280
     0
281
     0
  0
CLASS
  1
AMDTBROWSERDBTAB
  2
AmdtBrowserDbTab
  3
McadcomServices
 90
     1024
 91
        0
280
     0
281
     0
  0
CLASS
  1
CBROWSERAPPOBJECT
  2
CBrowserAppObject
  3
McadcomServices
 90
     1024
 91
        0
280
     0
281
     0
  0
CLASS
  1
DM_PLACEHOLDER
  2
AcDmSelsetPlaceholder
  3
McadcomServices
 90
     1024
 91
        0
280
     0
281
     0
  0
CLASS
  1
ACAMGFILTERDAT
  2
AcAmgFilterDat
  3
"AcadM|Product Description: AutoCAD Mechanical|Company: Autodesk, Inc."
 90
     1024
 91
        6
280
     0
281
     0
  0
CLASS
  1
CAMSSTRUCTBTNSTATE
  2
StructBtnState
  3
DesignerAssemblies_arx
 90
     1024
 91
        1
280
     0
281
     0
  0
CLASS
  1
SORTENTSTABLE
  2
AcDbSortentsTable
  3
ObjectDBX Classes
 90
        0
 91
        5
280
     0
281
     0
  0
CLASS
  1
RASTERVARIABLES
  2
AcDbRasterVariables
  3
ISM
 90
        0
 91
        1
280
     0
281
     0
  0
CLASS
  1
IMAGEDEF
  2
AcDbRasterImageDef
  3
ISM
 90
        0
 91
        1
280
     0
281
     0
  0
CLASS
  1
IMAGEDEF_REACTOR
  2
AcDbRasterImageDefReactor
  3
ISM
 90
        1
 91
        2
280
     0
281
     0
  0
CLASS
  1
IMAGE
  2
AcDbRasterImage
  3
ISM
 90
     2175
 91
        1
280
     0
281
     1
  0
CLASS
  1
RAPIDRTRENDERSETTINGS
  2
AcDbRapidRTRenderSettings
  3
ObjectDBX Classes
 90
     1024
 91
        6
280
     0
281
     0
  0
ENDSEC
  0
SECTION
  2
TABLES
  0
TABLE
  2
VPORT
  5
8
330
0
100
AcDbSymbolTable
 70
     1
  0
VPORT
  5
94
330
8
100
AcDbSymbolTableRecord
100
AcDbViewportTableRecord
  2
*Active
 70
     0
 10
0.0
 20
0.0
 11
1.0
 21
1.0
 12
30.43011504712726
 22
19.47943004544647
 13
0.0
 23
0.0
 14
0.5
 24
0.5
 15
0.5
 25
0.5
 16
0.0
 26
0.0
 36
1.0
 17
0.0
 27
0.0
 37
0.0
 40
9.8739971184141
 41
2.187927107061503
 42
50.0
 43
0.0
 44
0.0
 50
0.0
 51
0.0
 71
     0
 72
  1000
 73
     1
 74
     3
 75
     0
 76
     0
 77
     0
 78
     0
281
     0
 65
     1
110
0.0
120
0.0
130
0.0
111
1.0
121
0.0
131
0.0
112
0.0
122
1.0
132
0.0
 79
     0
146
0.0
348
9F
 60
     3
 61
     5
292
     1
282
     1
141
0.0
142
0.0
 63
   250
421
  3355443
1001
ACAD_NAV_VCDISPLAY
1070
     3
  0
ENDTAB
  0
TABLE
  2
LTYPE
  5
5
330
0
100
AcDbSymbolTable
 70
    16
  0
LTYPE
  5
14
330
5
100
AcDbSymbolTableRecord
100
AcDbLinetypeTableRecord
  2
ByBlock
 70
     0
  3

 72
    65
 73
     0
 40
0.0
  0
LTYPE
  5
15
330
5
100
AcDbSymbolTableRecord
100
AcDbLinetypeTableRecord
  2
ByLayer
 70
     0
  3

 72
    65
 73
     0
 40
0.0
  0
LTYPE
  5
16
330
5
100
AcDbSymbolTableRecord
100
AcDbLinetypeTableRecord
  2
Continuous
 70
     0
  3
Solid line
 72
    65
 73
     0
 40
0.0
  0
LTYPE
  5
21A
330
5
100
AcDbSymbolTableRecord
100
AcDbLinetypeTableRecord
  2
HIDDEN
 70
     0
  3
Hidden __ __ __ __ __ __ __ __ __ __ __ __ __ _
 72
    65
 73
     2
 40
0.375
 49
0.25
 74
     0
 49
-0.125
 74
     0
  0
LTYPE
  5
21B
330
5
100
AcDbSymbolTableRecord
100
AcDbLinetypeTableRecord
  2
PHANTOM2
 70
     0
  3
Phantom (.5x) ___ _ _ ___ _ _ ___ _ _ ___ _ _
 72
    65
 73
     6
 40
1.25
 49
0.625
 74
     0
 49
-0.125
 74
     0
 49
0.125
 74
     0
 49
-0.125
 74
     0
 49
0.125
 74
     0
 49
-0.125
 74
     0
  0
LTYPE
  5
21C
330
5
100
AcDbSymbolTableRecord
100
AcDbLinetypeTableRecord
  2
CENTER
 70
     0
  3
Center ____ _ ____ _ ____ _ ____ _ ____ _ ____
 72
    65
 73
     4
 40
2.0
 49
1.25
 74
     0
 49
-0.25
 74
     0
 49
0.25
 74
     0
 49
-0.25
 74
     0
  0
LTYPE
  5
250
330
5
100
AcDbSymbolTableRecord
100
AcDbLinetypeTableRecord
  2
AM_ISO02W050
 70
     0
  3
__ __ __ __ __ __ __ __ __ __ __ __ __ __ __
 72
    65
 73
     2
 40
7.5
 49
6.0
 74
     0
 49
-1.5
 74
     0
  0
LTYPE
  5
251
330
5
100
AcDbSymbolTableRecord
100
AcDbLinetypeTableRecord
  2
AM_ISO08W050
 70
     0
  3
____ . ____ . ____ . ____ . ____ . ____ . ____
 72
    65
 73
     4
 40
18.0
 49
12.0
 74
     0
 49
-1.5
 74
     0
 49
3.0
 74
     0
 49
-1.5
 74
     0
  0
LTYPE
  5
252
330
5
100
AcDbSymbolTableRecord
100
AcDbLinetypeTableRecord
  2
AM_ISO09W050
 70
     0
  3
_____ . . _____ . . _____ . . ____ .. ____
 72
    65
 73
     6
 40
22.5
 49
12.0
 74
     0
 49
-1.5
 74
     0
 49
3.0
 74
     0
 49
-1.5
 74
     0
 49
3.0
 74
     0
 49
-1.5
 74
     0
  0
LTYPE
  5
253
330
5
100
AcDbSymbolTableRecord
100
AcDbLinetypeTableRecord
  2
Amconstr
 70
     0
  3
_______________________
 72
    65
 73
     2
 40
9999.0
 49
9999.0
 74
     0
 49
0.0
 74
     0
  0
LTYPE
  5
254
330
5
100
AcDbSymbolTableRecord
100
AcDbLinetypeTableRecord
  2
AM_ISO08W050x2
 70
     0
  3
__ . __ . __ . __ . __ . __
 72
    65
 73
     4
 40
9.0
 49
6.0
 74
     0
 49
-0.75
 74
     0
 49
1.5
 74
     0
 49
-0.75
 74
     0
  0
LTYPE
  5
255
330
5
100
AcDbSymbolTableRecord
100
AcDbLinetypeTableRecord
  2
AM_ISO02W050x2
 70
     0
  3
 _ _ _ _ _ _ _ _ _ _ _ _
 72
    65
 73
     2
 40
3.75
 49
3.0
 74
     0
 49
-0.75
 74
     0
  0
LTYPE
  5
258
330
5
100
AcDbSymbolTableRecord
100
AcDbLinetypeTableRecord
  2
Amzigzag
 70
     0
  3
/\/-/\/-/\/-/\/-/\/-/\/
 72
    65
 73
     2
 40
11.0001
 49
0.0001
 74
     4
 75
   136
340
257
 46
0.04
 50
0.0
 44
0.0
 45
0.0
 49
-11.0
 74
     0
  0
LTYPE
  5
259
330
5
100
AcDbSymbolTableRecord
100
AcDbLinetypeTableRecord
  2
CENTER2
 70
     0
  3
Center (.5x) ___ _ ___ _ ___ _ ___ _ ___ _ ___
 72
    65
 73
     4
 40
1.125
 49
0.75
 74
     0
 49
-0.125
 74
     0
 49
0.125
 74
     0
 49
-0.125
 74
     0
  0
LTYPE
  5
25A
330
5
100
AcDbSymbolTableRecord
100
AcDbLinetypeTableRecord
  2
HIDDEN2
 70
     0
  3
Hidden (.5x) _ _ _ _ _ _ _ _ _ _ _ _ _ _ _ _ _
 72
    65
 73
     2
 40
0.1875
 49
0.125
 74
     0
 49
-0.0625
 74
     0
  0
LTYPE
  5
25B
330
5
100
AcDbSymbolTableRecord
100
AcDbLinetypeTableRecord
  2
Amzigzag2
 70
     0
  3
/\/-/\/-/\/-/\/-/\/-/\/
 72
    65
 73
     2
 40
0.4401
 49
0.0001
 74
     4
 75
   136
340
257
 46
0.0016
 50
0.0
 44
0.0
 45
0.0
 49
-0.4400000000000001
 74
     0
  0
LTYPE
  5
26B
330
5
100
AcDbSymbolTableRecord
100
AcDbLinetypeTableRecord
  2
ACANSTGB
 70
     0
  3
__ . . __ . .
 72
    65
 73
     6
 40
0.35433070866
 49
0.15748031496
 74
     0
 49
-0.03937007874
 74
     0
 49
0.03937007874
 74
     0
 49
-0.03937007874
 74
     0
 49
0.03937007874
 74
     0
 49
-0.03937007874
 74
     0
  0
LTYPE
  5
26C
330
5
100
AcDbSymbolTableRecord
100
AcDbLinetypeTableRecord
  2
ACANSTGL
 70
     0
  3
_ _ _ _ _
 72
    65
 73
     2
 40
0.11811023622
 49
0.07874015748
 74
     0
 49
-0.03937007874
 74
     0
  0
ENDTAB
  0
TABLE
  2
LAYER
  5
2
102
{ACAD_XDICTIONARY
360
18E
102
}
330
0
100
AcDbSymbolTable
 70
    32
  0
LAYER
  5
10
102
{ACAD_XDICTIONARY
360
E6
102
}
330
2
100
AcDbSymbolTableRecord
100
AcDbLayerTableRecord
  2
0
 70
     0
 62
     7
  6
Continuous
370
    -3
390
F
347
98
348
0
  0
LAYER
  5
402
330
2
100
AcDbSymbolTableRecord
100
AcDbLayerTableRecord
  2
title block
 70
     0
 62
     1
  6
Continuous
370
    15
390
F
347
98
348
0
1001
AcAecLayerStandard
1000

1000

  0
LAYER
  5
404
330
2
100
AcDbSymbolTableRecord
100
AcDbLayerTableRecord
  2
address
 70
     0
 62
   250
  6
Continuous
370
    -3
390
F
347
98
348
0
1001
AcAecLayerStandard
1000

1000

  0
LAYER
  5
405
330
2
100
AcDbSymbolTableRecord
100
AcDbLayerTableRecord
  2
logos
 70
     0
 62
   255
  6
Continuous
370
    -3
390
F
347
98
348
0
1001
AcAecLayerStandard
1000

1000

  0
LAYER
  5
413
330
2
100
AcDbSymbolTableRecord
100
AcDbLayerTableRecord
  2
BORDER
 70
     0
 62
   251
  6
Continuous
370
    -3
390
F
347
98
348
0
1001
AcAecLayerStandard
1000

1000

  0
LAYER
  5
422
330
2
100
AcDbSymbolTableRecord
100
AcDbLayerTableRecord
  2
Layer 1
 70
     0
 62
     7
  6
Continuous
370
    -3
390
F
347
98
348
0
  0
LAYER
  5
423
330
2
100
AcDbSymbolTableRecord
100
AcDbLayerTableRecord
  2
MORTAIRVENT
 70
     0
 62
     3
  6
Continuous
370
    -3
390
F
347
98
348
0
1001
AcAecLayerStandard
1000

1000

  0
LAYER
  5
586
330
2
100
AcDbSymbolTableRecord
100
AcDbLayerTableRecord
  2
TITLE
 70
     0
 62
     1
  6
Continuous
370
    -3
390
F
347
98
348
0
1001
AcAecLayerStandard
1000

1000

1001
AcCmTransparency
1071
        0
  0
LAYER
  5
5AD
330
2
100
AcDbSymbolTableRecord
100
AcDbLayerTableRecord
  2
NOTES
 70
     0
 62
     7
  6
Continuous
370
    -3
390
F
347
98
348
0
1001
AcAecLayerStandard
1000

1000

1001
AcCmTransparency
1071
        0
  0
LAYER
  5
5C2
330
2
100
AcDbSymbolTableRecord
100
AcDbLayerTableRecord
  2
AM_VIEWS
 70
     0
 62
     1
  6
Continuous
290
     0
370
    15
390
F
347
98
348
0
1001
AcAecLayerStandard
1000

1000

  0
LAYER
  5
5D9
330
2
100
AcDbSymbolTableRecord
100
AcDbLayerTableRecord
  2
A-DE-35
 70
     0
 62
     1
  6
Continuous
370
    -3
390
F
347
98
348
0
1001
AcAecLayerStandard
1000

1000

  0
LAYER
  5
5DA
330
2
100
AcDbSymbolTableRecord
100
AcDbLayerTableRecord
  2
A-DE-10
 70
     0
 62
     6
  6
Continuous
370
    -3
390
F
347
98
348
0
1001
AcAecLayerStandard
1000

1000

  0
LAYER
  5
5DB
330
2
100
AcDbSymbolTableRecord
100
AcDbLayerTableRecord
  2
DRAINAGE MAT
 70
     0
 62
     1
  6
Continuous
370
    -3
390
F
347
98
348
0
1001
AcAecLayerStandard
1000

1000

1001
AcCmTransparency
1071
        0
  0
LAYER
  5
5DC
330
2
100
AcDbSymbolTableRecord
100
AcDbLayerTableRecord
  2
WRB
 70
     0
 62
     5
  6
Continuous
370
    -3
390
F
347
98
348
0
1001
AcAecLayerStandard
1000

1000

1001
AcCmTransparency
1071
        0
  0
LAYER
  5
5DD
330
2
100
AcDbSymbolTableRecord
100
AcDbLayerTableRecord
  2
HATCH
 70
     0
 62
     9
  6
Continuous
370
    -3
390
F
347
98
348
0
1001
AcAecLayerStandard
1000

1000

1001
AcCmTransparency
1071
        0
  0
LAYER
  5
5DE
330
2
100
AcDbSymbolTableRecord
100
AcDbLayerTableRecord
  2
ADHESIVE
 70
     0
 62
   250
  6
Continuous
370
    -3
390
F
347
98
348
0
1001
AcAecLayerStandard
1000

1000

1001
AcCmTransparency
1071
        0
  0
LAYER
  5
5DF
330
2
100
AcDbSymbolTableRecord
100
AcDbLayerTableRecord
  2
BRICK
 70
     0
 62
     7
  6
Continuous
370
    -3
390
F
347
98
348
0
1001
AcAecLayerStandard
1000

1000

1001
AcCmTransparency
1071
        0
  0
LAYER
  5
5E0
330
2
100
AcDbSymbolTableRecord
100
AcDbLayerTableRecord
  2
LEADERS
 70
     0
 62
     7
  6
Continuous
370
    -3
390
F
347
98
348
0
1001
AcAecLayerStandard
1000

1000

1001
AcCmTransparency
1071
        0
  0
LAYER
  5
5E1
330
2
100
AcDbSymbolTableRecord
100
AcDbLayerTableRecord
  2
SUBSTRATE
 70
     0
 62
     6
  6
Continuous
370
    -3
390
F
347
98
348
0
1001
AcAecLayerStandard
1000

1000

1001
AcCmTransparency
1071
        0
  0
LAYER
  5
5E2
330
2
100
AcDbSymbolTableRecord
100
AcDbLayerTableRecord
  2
MORTAR
 70
     0
 62
     3
  6
Continuous
370
    -3
390
F
347
98
348
0
1001
AcAecLayerStandard
1000

1000

1001
AcCmTransparency
1071
        0
  0
LAYER
  5
5E3
330
2
100
AcDbSymbolTableRecord
100
AcDbLayerTableRecord
  2
SCREW
 70
     0
 62
     8
  6
Continuous
370
    -3
390
F
347
98
348
0
1001
AcAecLayerStandard
1000

1000

1001
AcCmTransparency
1071
        0
  0
LAYER
  5
5E4
330
2
100
AcDbSymbolTableRecord
100
AcDbLayerTableRecord
  2
WALL CONSTRUCTION
 70
     0
 62
   252
  6
Continuous
370
    -3
390
F
347
98
348
0
1001
AcAecLayerStandard
1000

1000

1001
AcCmTransparency
1071
        0
  0
LAYER
  5
5E5
330
2
100
AcDbSymbolTableRecord
100
AcDbLayerTableRecord
  2
MORTAR HATCH
 70
     0
 62
     9
  6
Continuous
370
    -3
390
F
347
98
348
0
1001
AcAecLayerStandard
1000

1000

1001
AcCmTransparency
1071
        0
  0
LAYER
  5
99C
330
2
100
AcDbSymbolTableRecord
100
AcDbLayerTableRecord
  2
viewports
 70
     0
 62
     7
  6
Continuous
290
     0
370
    30
390
F
347
98
348
0
1001
AcAecLayerStandard
1000

1000

  0
LAYER
  5
1219
330
2
100
AcDbSymbolTableRecord
100
AcDbLayerTableRecord
  2
A-PA
 70
     0
 62
     9
  6
Continuous
370
    -3
390
F
347
98
348
0
1001
AcAecLayerStandard
1000

1000

  0
LAYER
  5
121A
330
2
100
AcDbSymbolTableRecord
100
AcDbLayerTableRecord
  2
BASE PLATE
 70
     0
 62
     6
  6
Continuous
370
    -3
390
F
347
98
348
0
1001
AcAecLayerStandard
1000

1000

1001
AcCmTransparency
1071
        0
  0
LAYER
  5
121B
330
2
100
AcDbSymbolTableRecord
100
AcDbLayerTableRecord
  2
GRADE
 70
     0
 62
     5
  6
Continuous
370
    -3
390
F
347
98
348
0
  0
LAYER
  5
121C
330
2
100
AcDbSymbolTableRecord
100
AcDbLayerTableRecord
  2
FLASHING
 70
     0
 62
     8
  6
Continuous
370
    -3
390
F
347
98
348
0
  0
LAYER
  5
121D
330
2
100
AcDbSymbolTableRecord
100
AcDbLayerTableRecord
  2
WEEP HOLE
 70
     0
 62
     5
  6
HIDDEN2
370
    -3
390
F
347
98
348
0
1001
AcAecLayerStandard
1000

1000

1001
AcCmTransparency
1071
        0
  0
LAYER
  5
121E
330
2
100
AcDbSymbolTableRecord
100
AcDbLayerTableRecord
  2
FOUNDATION
 70
     0
 62
     7
  6
Continuous
370
    -3
390
F
347
98
348
0
1001
AcAecLayerStandard
1000

1000

1001
AcCmTransparency
1071
        0
  0
LAYER
  5
121F
330
2
100
AcDbSymbolTableRecord
100
AcDbLayerTableRecord
  2
FLASHING TAPE
 70
     0
 62
     1
  6
Continuous
370
    -3
390
F
347
98
348
0
1001
AcAecLayerStandard
1000

1000

1001
AcCmTransparency
1071
        0
  0
LAYER
  5
1DD1
330
2
100
AcDbSymbolTableRecord
100
AcDbLayerTableRecord
  2
scale
 70
     0
 62
     7
  6
Continuous
290
     0
370
    -3
390
F
347
98
348
0
1001
AcAecLayerStandard
1000

1000

  0
ENDTAB
  0
TABLE
  2
STYLE
  5
3
330
0
100
AcDbSymbolTable
 70
     8
  0
STYLE
  5
11
330
3
100
AcDbSymbolTableRecord
100
AcDbTextStyleTableRecord
  2
Standard
 70
     0
 40
0.0
 41
1.0
 50
0.0
 71
     0
 42
0.2
  3
arial.ttf
  4

1001
ACAD
1000
Arial
1071
       34
  0
STYLE
  5
DC
330
3
100
AcDbSymbolTableRecord
100
AcDbTextStyleTableRecord
  2
Annotative
 70
     0
 40
0.0
 41
1.0
 50
0.0
 71
     0
 42
0.2
  3
arial.ttf
  4

1001
AcadAnnotative
1000
AnnotativeData
1002
{
1070
     1
1070
     1
1002
}
1001
ACAD
1000
Arial
1071
       34
  0
STYLE
  5
257
330
3
100
AcDbSymbolTableRecord
100
AcDbTextStyleTableRecord
  2

 70
     1
 40
0.0
 41
1.0
 50
0.0
 71
     0
 42
0.2
  3
genltshp.shx
  4

  0
STYLE
  5
269
330
3
100
AcDbSymbolTableRecord
100
AcDbTextStyleTableRecord
  2
ACANSTS
 70
     0
 40
0.0
 41
1.0
 50
0.0
 71
     0
 42
0.2
  3
romans.shx
  4

  0
STYLE
  5
26A
330
3
100
AcDbSymbolTableRecord
100
AcDbTextStyleTableRecord
  2
ACANSGDT
 70
     0
 40
0.0
 41
1.0
 50
0.0
 71
     0
 42
0.2
  3
amgdt.shx
  4

  0
STYLE
  5
424
330
3
100
AcDbSymbolTableRecord
100
AcDbTextStyleTableRecord
  2
SMOOTH
 70
     0
 40
0.0
 41
1.0
 50
0.0
 71
     0
 42
0.5244619964034975
  3
ROMANS
  4

  0
STYLE
  5
425
330
3
100
AcDbSymbolTableRecord
100
AcDbTextStyleTableRecord
  2
DETAILS
 70
     0
 40
0.0
 41
1.0
 50
0.0
 71
     0
 42
0.09375
  3
sanss___.ttf
  4

1001
ACAD
1000
SansSerif
1071
      514
  0
STYLE
  5
587
330
3
100
AcDbSymbolTableRecord
100
AcDbTextStyleTableRecord
  2
Title
 70
     0
 40
0.09375
 41
1.0
 50
0.0
 71
     0
 42
0.09375
  3
times.ttf
  4

1001
ACAD
1000
Times New Roman
1071
       18
  0
ENDTAB
  0
TABLE
  2
VIEW
  5
6
330
0
100
AcDbSymbolTable
 70
     0
  0
ENDTAB
  0
TABLE
  2
UCS
  5
7
330
0
100
AcDbSymbolTable
 70
     0
  0
ENDTAB
  0
TABLE
  2
APPID
  5
9
330
0
100
AcDbSymbolTable
 70
    25
  0
APPID
  5
12
330
9
100
AcDbSymbolTableRecord
100
AcDbRegAppTableRecord
  2
ACAD
 70
     0
  0
APPID
  5
DD
330
9
100
AcDbSymbolTableRecord
100
AcDbRegAppTableRecord
  2
AcadAnnoPO
 70
     0
  0
APPID
  5
DE
330
9
100
AcDbSymbolTableRecord
100
AcDbRegAppTableRecord
  2
AcadAnnotative
 70
     0
  0
APPID
  5
DF
330
9
100
AcDbSymbolTableRecord
100
AcDbRegAppTableRecord
  2
ACAD_DSTYLE_DIMJAG
 70
     0
  0
APPID
  5
E0
330
9
100
AcDbSymbolTableRecord
100
AcDbRegAppTableRecord
  2
ACAD_DSTYLE_DIMTALN
 70
     0
  0
APPID
  5
107
330
9
100
AcDbSymbolTableRecord
100
AcDbRegAppTableRecord
  2
ACAD_MLEADERVER
 70
     0
  0
APPID
  5
1A6
330
9
100
AcDbSymbolTableRecord
100
AcDbRegAppTableRecord
  2
ACAD_NAV_VCDISPLAY
 70
     0
  0
APPID
  5
213
330
9
100
AcDbSymbolTableRecord
100
AcDbRegAppTableRecord
  2
MCAD_NO_VIS
 70
     0
  0
APPID
  5
214
330
9
100
AcDbSymbolTableRecord
100
AcDbRegAppTableRecord
  2
ACAD_TEMP_GRAPHIC
 70
     0
  0
APPID
  5
221
330
9
100
AcDbSymbolTableRecord
100
AcDbRegAppTableRecord
  2
ACATTRIBSERVICES
 70
     0
  0
APPID
  5
239
330
9
100
AcDbSymbolTableRecord
100
AcDbRegAppTableRecord
  2
DESIGNERASSEMBLIES
 70
     0
  0
APPID
  5
24E
330
9
100
AcDbSymbolTableRecord
100
AcDbRegAppTableRecord
  2
ACAD_DSTYLE_DIMBREAK
 70
     0
  0
APPID
  5
293
330
9
100
AcDbSymbolTableRecord
100
AcDbRegAppTableRecord
  2
ACAD_PSEXT
 70
     0
  0
APPID
  5
403
330
9
100
AcDbSymbolTableRecord
100
AcDbRegAppTableRecord
  2
AcAecLayerStandard
 70
     0
  0
APPID
  5
40F
330
9
100
AcDbSymbolTableRecord
100
AcDbRegAppTableRecord
  2
ACAD_EXEMPT_FROM_CAD_STANDARDS
 70
     0
  0
APPID
  5
41B
330
9
100
AcDbSymbolTableRecord
100
AcDbRegAppTableRecord
  2
GENIUS_GENREC_14
 70
     0
  0
APPID
  5
41C
330
9
100
AcDbSymbolTableRecord
100
AcDbRegAppTableRecord
  2
GENIUS_GENOBJ-N-REC_13
 70
     0
  0
APPID
  5
41D
330
9
100
AcDbSymbolTableRecord
100
AcDbRegAppTableRecord
  2
GENIUS_GENODEF_13
 70
     0
  0
APPID
  5
426
330
9
100
AcDbSymbolTableRecord
100
AcDbRegAppTableRecord
  2
GradientColor1ACI
 70
     0
  0
APPID
  5
588
330
9
100
AcDbSymbolTableRecord
100
AcDbRegAppTableRecord
  2
AcCmTransparency
 70
     0
  0
APPID
  5
594
330
9
100
AcDbSymbolTableRecord
100
AcDbRegAppTableRecord
  2
ACDBBLOCKREPETAG
 70
     0
  0
APPID
  5
5C3
330
9
100
AcDbSymbolTableRecord
100
AcDbRegAppTableRecord
  2
GENIUS_GENSCREG_15
 70
     0
  0
APPID
  5
5C4
330
9
100
AcDbSymbolTableRecord
100
AcDbRegAppTableRecord
  2
GENIUS_GENOBJ-N-SDF_13
 70
     0
  0
APPID
  5
5E6
330
9
100
AcDbSymbolTableRecord
100
AcDbRegAppTableRecord
  2
GradientColor2ACI
 70
     0
  0
APPID
  5
E42
330
9
100
AcDbSymbolTableRecord
100
AcDbRegAppTableRecord
  2
PE_URL
 70
     0
  0
ENDTAB
  0
TABLE
  2
DIMSTYLE
  5
A
330
0
100
AcDbSymbolTable
 70
     8
100
AcDbDimStyleTable
 71
     3
340
24D
340
27
340
E1
  0
DIMSTYLE
105
27
330
A
100
AcDbSymbolTableRecord
100
AcDbDimStyleTableRecord
  2
Standard
 70
     0
340
11
  0
DIMSTYLE
105
E1
330
A
100
AcDbSymbolTableRecord
100
AcDbDimStyleTableRecord
  2
Annotative
 70
     0
 40
0.0
340
11
1001
AcadAnnotative
1000
AnnotativeData
1002
{
1070
     1
1070
     1
1002
}
1001
ACAD_DSTYLE_DIMJAG
1070
   388
1040
1.5
1001
ACAD_DSTYLE_DIMTALN
1070
   392
1070
     0
  0
DIMSTYLE
105
24D
102
{ACAD_REACTORS
330
23D
102
}
330
A
100
AcDbSymbolTableRecord
100
AcDbDimStyleTableRecord
  2
AM_ANSI
 70
     0
  4
mm
 41
0.12
 42
0.05
 43
0.5
 44
0.1
 47
0.1
 48
0.1
 78
     7
 79
     2
 90
     1
140
0.12
141
0.0
146
0.71
147
0.06
176
   256
177
   256
178
     2
274
     4
284
     7
340
11
345
14
346
14
347
14
371
    -1
372
    -1
1001
ACAD_DSTYLE_DIMJAG
1070
   388
1040
1.5
1001
ACAD_DSTYLE_DIMBREAK
1070
   391
1040
0.125
  0
DIMSTYLE
105
25C
330
A
100
AcDbSymbolTableRecord
100
AcDbDimStyleTableRecord
  2
AM_ANSI$3
 70
     0
  4
mm
 41
0.12
 42
0.05
 43
0.5
 44
0.1
 47
0.1
 48
0.1
 78
     7
 79
     2
 90
     1
140
0.12
141
0.0
146
0.71
147
0.06
176
   256
177
   256
178
     2
274
     4
284
     7
288
     1
289
     0
340
11
345
14
346
14
347
14
371
    -1
372
    -1
1001
ACAD_DSTYLE_DIMBREAK
1070
   391
1040
0.125
1001
ACAD_DSTYLE_DIMJAG
1070
   388
1040
1.5
  0
DIMSTYLE
105
25D
330
A
100
AcDbSymbolTableRecord
100
AcDbDimStyleTableRecord
  2
AM_ANSI$4
 70
     0
  4
mm
 41
0.12
 42
0.05
 43
0.5
 44
0.1
 47
0.1
 48
0.1
 78
     7
 79
     2
 90
     1
140
0.12
141
0.0
146
0.71
147
0.06
176
   256
177
   256
178
     2
274
     4
284
     7
288
     1
289
     0
340
11
345
14
346
14
347
14
371
    -1
372
    -1
1001
ACAD_DSTYLE_DIMBREAK
1070
   391
1040
0.125
1001
ACAD_DSTYLE_DIMJAG
1070
   388
1040
1.5
  0
DIMSTYLE
105
25E
330
A
100
AcDbSymbolTableRecord
100
AcDbDimStyleTableRecord
  2
AM_ANSI$7
 70
     0
  4
mm
 41
0.12
 42
0.05
 43
0.5
 44
0.1
 47
0.1
 48
0.1
 78
     7
 79
     2
 90
     1
140
0.12
141
0.0
146
0.71
147
0.06
176
   256
177
   256
178
     2
274
     4
284
     7
340
11
345
14
346
14
347
14
371
    -1
372
    -1
1001
ACAD_DSTYLE_DIMBREAK
1070
   391
1040
0.125
1001
ACAD_DSTYLE_DIMJAG
1070
   388
1040
1.5
  0
DIMSTYLE
105
25F
330
A
100
AcDbSymbolTableRecord
100
AcDbDimStyleTableRecord
  2
AM_ANSI$SF
 70
     0
  4
mm
 41
0.12
 42
0.05
 43
0.5
 44
0.1
 47
0.1
 48
0.1
 75
     1
 76
     1
 78
     7
 79
     2
 90
     1
140
0.12
141
0.0
146
0.71
147
0.06
176
   256
177
   256
178
     2
274
     4
284
     7
340
11
345
14
346
14
347
14
371
    -1
372
    -1
1001
ACAD_DSTYLE_DIMBREAK
1070
   391
1040
0.125
1001
ACAD_DSTYLE_DIMJAG
1070
   388
1040
1.5
  0
DIMSTYLE
105
264
330
A
100
AcDbSymbolTableRecord
100
AcDbDimStyleTableRecord
  2
AM_ANSI$SH
 70
     0
  4
mm
 41
0.12
 42
0.05
 43
0.5
 44
0.1
 47
0.1
 48
0.1
 75
     1
 76
     1
 78
     7
 79
     2
 90
     1
140
0.12
141
0.0
146
0.71
147
0.06
173
     1
176
   256
177
   256
178
     2
274
     4
284
     7
340
11
343
260
345
14
346
14
347
14
371
    -1
372
    -1
1001
ACAD_DSTYLE_DIMBREAK
1070
   391
1040
0.125
1001
ACAD_DSTYLE_DIMJAG
1070
   388
1040
1.5
  0
ENDTAB
  0
TABLE
  2
BLOCK_RECORD
  5
1
330
0
100
AcDbSymbolTable
 70
     7
  0
BLOCK_RECORD
  5
1F
102
{ACAD_XDICTIONARY
360
15D
102
}
330
1
100
AcDbSymbolTableRecord
100
AcDbBlockTableRecord
  2
*Model_Space
340
22
 70
     0
280
     1
281
     0
  0
BLOCK_RECORD
  5
58
102
{ACAD_XDICTIONARY
360
AB7
102
}
330
1
100
AcDbSymbolTableRecord
100
AcDbBlockTableRecord
  2
*Paper_Space
340
59
 70
     0
280
     1
281
     0
  0
BLOCK_RECORD
  5
231
330
1
100
AcDbSymbolTableRecord
100
AcDbBlockTableRecord
  2
*U0
340
0
 70
     0
280
     1
281
     0
  0
BLOCK_RECORD
  5
260
330
1
100
AcDbSymbolTableRecord
100
AcDbBlockTableRecord
  2
GENAXEH
340
0
 70
     0
280
     1
281
     0
  0
BLOCK_RECORD
  5
26E
330
1
100
AcDbSymbolTableRecord
100
AcDbBlockTableRecord
  2
_ACMFILLEDHALF
340
0
 70
     0
280
     1
281
     0
  0
BLOCK_RECORD
  5
1215
330
1
100
AcDbSymbolTableRecord
100
AcDbBlockTableRecord
  2
_ArchTick
340
0
102
{BLKREFS
331
1370
331
1371
331
1372
331
1374
331
1384
331
1386
331
1C78
331
1C75
102
}
 70
     0
280
     1
281
     0
  0
BLOCK_RECORD
  5
163A
102
{ACAD_XDICTIONARY
360
163C
102
}
330
1
100
AcDbSymbolTableRecord
100
AcDbBlockTableRecord
  2
A$C34066ad8
340
0
 70
     1
280
     1
281
     0
  0
BLOCK_RECORD
  5
16B4
102
{ACAD_XDICTIONARY
360
16B6
102
}
330
1
100
AcDbSymbolTableRecord
100
AcDbBlockTableRecord
  2
A$C36877eb4
340
0
 70
     1
280
     1
281
     0
  0
BLOCK_RECORD
  5
1E75
102
{ACAD_XDICTIONARY
360
1E79
102
}
330
1
100
AcDbSymbolTableRecord
100
AcDbBlockTableRecord
  2
A$C193a59f7
340
0
 70
     1
280
     1
281
     0
  0
ENDTAB
  0
ENDSEC
  0
SECTION
  2
BLOCKS
  0
BLOCK
  5
20
330
1F
100
AcDbEntity
  8
0
100
AcDbBlockBegin
  2
*Model_Space
 70
     0
 10
0.0
 20
0.0
 30
0.0
  3
*Model_Space
  1

  0
ENDBLK
  5
21
330
1F
100
AcDbEntity
  8
0
100
AcDbBlockEnd
  0
BLOCK
  5
5A
330
58
100
AcDbEntity
 67
     1
  8
0
100
AcDbBlockBegin
  2
*Paper_Space
 70
     0
 10
0.0
 20
0.0
 30
0.0
  3
*Paper_Space
  1

  0
ENDBLK
  5
5B
330
58
100
AcDbEntity
 67
     1
  8
0
100
AcDbBlockEnd
  0
BLOCK
  5
232
330
231
100
AcDbEntity
  8
0
100
AcDbBlockBegin
  2
*U0
 70
     1
 10
0.0
 20
0.0
 30
0.0
  3
*U0
  1

  0
ENDBLK
  5
233
330
231
100
AcDbEntity
  8
0
100
AcDbBlockEnd
  0
BLOCK
  5
262
330
260
100
AcDbEntity
  8
0
100
AcDbBlockBegin
  2
GENAXEH
 70
     0
 10
0.0
 20
0.0
 30
0.0
  3
GENAXEH
  1

  0
LINE
  5
261
330
260
100
AcDbEntity
  8
0
100
AcDbLine
 10
-1.0
 20
0.0
 30
0.0
 11
1.0
 21
0.0
 31
0.0
  0
ENDBLK
  5
263
330
260
100
AcDbEntity
  8
0
100
AcDbBlockEnd
  0
BLOCK
  5
26F
330
26E
100
AcDbEntity
  8
0
100
AcDbBlockBegin
  2
_ACMFILLEDHALF
 70
     0
 10
0.0
 20
0.0
 30
0.0
  3
_ACMFILLEDHALF
  1

  0
TRACE
  5
271
330
26E
100
AcDbEntity
  8
0
 62
     0
100
AcDbTrace
 10
-0.8
 20
0.0
 30
0.0
 11
-1.0
 21
0.166666666
 31
0.0
 12
0.0
 22
0.0
 32
0.0
 13
0.0
 23
0.0
 33
0.0
  0
LINE
  5
272
330
26E
100
AcDbEntity
  8
0
 62
     0
100
AcDbLine
 10
-1.0
 20
0.0
 30
0.0
 11
-0.8
 21
0.0
 31
0.0
  0
ENDBLK
  5
270
330
26E
100
AcDbEntity
  8
0
100
AcDbBlockEnd
  0
BLOCK
  5
1216
330
1215
100
AcDbEntity
  8
0
100
AcDbBlockBegin
  2
_ArchTick
 70
     0
 10
0.0
 20
0.0
 30
0.0
  3
_ArchTick
  1

  0
LWPOLYLINE
  5
1217
330
1215
100
AcDbEntity
  8
0
  6
ByBlock
 62
     0
100
AcDbPolyline
 90
        2
 70
     0
 43
0.15
 10
-0.5
 20
-0.5
 10
0.5
 20
0.5
  0
ENDBLK
  5
1218
330
1215
100
AcDbEntity
  8
0
100
AcDbBlockEnd
  0
BLOCK
  5
163E
330
163A
100
AcDbEntity
  8
0
100
AcDbBlockBegin
  2
A$C34066ad8
 70
     0
 10
0.0
 20
0.0
 30
0.0
  3
A$C34066ad8
  1

  0
LWPOLYLINE
  5
163B
330
163A
100
AcDbEntity
  8
FLASHING
100
AcDbPolyline
 90
        6
 70
     0
 43
0.03125
 10
0.2880551752014391
 20
0.2345732777677334
 10
0.0758711588791492
 20
0.0198762617872319
 10
0.0249337984882772
 20
0.0517010512263312
 10
0.2528248154694701
 20
0.2797402368110298
 10
1.276580170784857
 20
0.2797402368110298
 10
1.276580170784857
 20
2.148758200253276
  0
ENDBLK
  5
163F
330
163A
100
AcDbEntity
  8
0
100
AcDbBlockEnd
  0
BLOCK
  5
16B8
330
16B4
100
AcDbEntity
  8
0
100
AcDbBlockBegin
  2
A$C36877eb4
 70
     0
 10
0.0
 20
0.0
 30
0.0
  3
A$C36877eb4
  1

  0
LWPOLYLINE
  5
16B5
330
16B4
100
AcDbEntity
  8
A-DE-35
  6
Continuous
100
AcDbPolyline
 90
        6
 70
     0
 43
0.0
 10
0.0858586894976696
 20
5.858478700575915
 10
0.0858586894976696
 20
3.371057445315798
 10
0.0000000201397157
 20
3.339807445315798
 10
0.1717173588556236
 20
3.277307445315798
 10
0.0858586894976696
 20
3.246057445315798
 10
0.0858586894976625
 20
-0.0000000060127796
  0
ENDBLK
  5
16B9
330
16B4
100
AcDbEntity
  8
0
100
AcDbBlockEnd
  0
BLOCK
  5
1E7B
330
1E75
100
AcDbEntity
  8
0
100
AcDbBlockBegin
  2
A$C193a59f7
 70
     0
 10
0.0
 20
0.0
 30
0.0
  3
A$C193a59f7
  1

  0
TEXT
  5
1E76
330
1E75
100
AcDbEntity
  8
NOTES
100
AcDbText
 10
0.0245856548776473
 20
0.3212078978656905
 30
0.0
 40
0.093
  1
3/4" GAP PROVIDED
  7
DETAILS
100
AcDbText
  0
TEXT
  5
1E77
330
1E75
100
AcDbEntity
  8
NOTES
100
AcDbText
 10
0.0245856548776473
 20
0.1797726159590098
 30
0.0
 40
0.093
  1
BY TEMPORARY 
  7
DETAILS
100
AcDbText
  0
TEXT
  5
1E78
330
1E75
100
AcDbEntity
  8
NOTES
100
AcDbText
 10
0.0245856548776473
 20
0.0327908625507476
 30
0.0
 40
0.093
  1
SPACER 
  7
DETAILS
100
AcDbText
  0
ENDBLK
  5
1E7C
330
1E75
100
AcDbEntity
  8
0
100
AcDbBlockEnd
  0
ENDSEC
  0
SECTION
  2
ENTITIES
  0
HATCH
  5
1354
330
1F
100
AcDbEntity
  8
ADHESIVE
100
AcDbHatch
 10
0.0
 20
0.0
 30
0.0
210
0.0
220
0.0
230
1.0
  2
HONEY
 70
     0
 71
     0
 91
        1
 92
        1
 93
        4
 72
     1
 10
29.1794127428525
 20
24.29635536830627
 11
29.13256098895542
 21
24.29635402868017
 72
     1
 10
29.13256098895542
 20
24.29635402868017
 11
29.13256098895542
 21
23.03264204489848
 72
     1
 10
29.13256098895542
 20
23.03264204489848
 11
29.1794127428525
 21
23.03264204489848
 72
     1
 10
29.1794127428525
 20
23.03264204489848
 11
29.1794127428525
 21
24.29635536830627
 97
        0
 75
     0
 76
     1
 52
0.0
 41
0.2
 77
     0
 78
     3
 53
0.0
 43
30.80298950139756
 44
10.45987372998765
 45
0.0375
 46
0.021650635094611
 79
     2
 49
0.025
 49
-0.05
 53
120.0
 43
30.80298950139756
 44
10.45987372998765
 45
-0.0375
 46
0.021650635094611
 79
     2
 49
0.025
 49
-0.05
 53
60.0
 43
30.80298950139756
 44
10.45987372998765
 45
0.0
 46
0.043301270189222
 79
     2
 49
-0.05
 49
0.025
 98
        1
 10
29.16730684501655
 20
23.07232544650855
1001
GradientColor1ACI
1070
     5
1001
GradientColor2ACI
1070
     2
1001
ACAD
1010
0.0
1020
0.0
1030
0.0
  0
HATCH
  5
1355
330
1F
100
AcDbEntity
  8
ADHESIVE
100
AcDbHatch
 10
0.0
 20
0.0
 30
0.0
210
0.0
220
0.0
230
1.0
  2
HONEY
 70
     0
 71
     0
 91
        1
 92
        1
 93
        4
 72
     1
 10
29.1794127428525
 20
19.78264204489848
 11
29.13256098895542
 21
19.78264204489848
 72
     1
 10
29.13256098895542
 20
19.78264204489848
 11
29.13256098895542
 21
18.712839667365
 72
     1
 10
29.13256098895542
 20
18.712839667365
 11
29.1794127428525
 21
18.712839667365
 72
     1
 10
29.1794127428525
 20
18.712839667365
 11
29.1794127428525
 21
19.78264204489848
 97
        0
 75
     0
 76
     1
 52
0.0
 41
0.2
 77
     0
 78
     3
 53
0.0
 43
30.80298950139756
 44
10.45987372998765
 45
0.0375
 46
0.021650635094611
 79
     2
 49
0.025
 49
-0.05
 53
120.0
 43
30.80298950139756
 44
10.45987372998765
 45
-0.0375
 46
0.021650635094611
 79
     2
 49
0.025
 49
-0.05
 53
60.0
 43
30.80298950139756
 44
10.45987372998765
 45
0.0
 46
0.043301270189222
 79
     2
 49
-0.05
 49
0.025
 98
        1
 10
29.14727058805252
 20
18.6315517272195
1001
GradientColor1ACI
1070
     5
1001
GradientColor2ACI
1070
     2
1001
ACAD
1010
0.0
1020
0.0
1030
0.0
  0
HATCH
  5
1356
330
1F
100
AcDbEntity
  8
ADHESIVE
100
AcDbHatch
 10
0.0
 20
0.0
 30
0.0
210
0.0
220
0.0
230
1.0
  2
HONEY
 70
     0
 71
     0
 91
        1
 92
        7
 72
     0
 73
     1
 93
        4
 10
29.1794127428525
 20
22.3925429932839
 10
29.13256098895542
 20
22.3925429932839
 10
29.13256098895542
 20
20.39254299328391
 10
29.1794127428525
 20
20.39254299328391
 97
        0
 75
     0
 76
     1
 52
0.0
 41
0.2
 77
     0
 78
     3
 53
0.0
 43
30.80298950139756
 44
13.06977467837307
 45
0.0375
 46
0.021650635094611
 79
     2
 49
0.025
 49
-0.05
 53
120.0
 43
30.80298950139756
 44
13.06977467837307
 45
-0.0375
 46
0.021650635094611
 79
     2
 49
0.025
 49
-0.05
 53
60.0
 43
30.80298950139756
 44
13.06977467837307
 45
0.0
 46
0.043301270189222
 79
     2
 49
-0.05
 49
0.025
 47
0.005090505967845
 98
        1
 10
29.14727058805252
 20
21.24145267560493
1001
GradientColor1ACI
1070
     5
1001
GradientColor2ACI
1070
     2
1001
ACAD
1010
0.0
1020
0.0
1030
0.0
  0
LINE
  5
1357
330
1F
100
AcDbEntity
  8
ADHESIVE
100
AcDbLine
 10
29.13256098895542
 20
19.78264204489848
 30
0.0
 11
29.1794127428525
 21
19.78264204489848
 31
0.0
  0
LINE
  5
1358
330
1F
100
AcDbEntity
  8
ADHESIVE
100
AcDbLine
 10
29.13256098895543
 20
18.712839667365
 30
0.0
 11
29.1794127428525
 21
18.712839667365
 31
0.0
  0
LINE
  5
1359
330
1F
100
AcDbEntity
  8
ADHESIVE
100
AcDbLine
 10
29.13256098895542
 20
23.03264204489848
 30
0.0
 11
29.1794127428525
 21
23.03264204489848
 31
0.0
  0
LINE
  5
135A
330
1F
100
AcDbEntity
  8
ADHESIVE
100
AcDbLine
 10
29.13256098895542
 20
22.3925429932839
 30
0.0
 11
29.1794127428525
 21
22.3925429932839
 31
0.0
  0
LINE
  5
135B
330
1F
100
AcDbEntity
  8
ADHESIVE
100
AcDbLine
 10
29.13256098895543
 20
20.39254299328391
 30
0.0
 11
29.1794127428525
 21
20.39254299328391
 31
0.0
  0
LWPOLYLINE
  5
135C
330
1F
100
AcDbEntity
  8
WRB
100
AcDbPolyline
 90
        4
 70
     0
 43
0.03125
 10
29.70591836609934
 20
24.29635461575406
 10
29.70591836609934
 20
20.64177016590731
 10
29.61231254689828
 20
20.22230803227223
 10
29.61231254689828
 20
18.65764204489847
  0
LWPOLYLINE
  5
135D
330
1F
100
AcDbEntity
  8
FOUNDATION
100
AcDbPolyline
 90
        4
 70
     0
 43
0.03125
 10
34.77030125145369
 20
19.60823688217786
 10
29.77795378465628
 20
19.60823688217786
 10
29.77795378465628
 20
15.80325971948408
 10
27.02704517593233
 20
15.59820614106663
  0
LWPOLYLINE
  5
135E
330
1F
100
AcDbEntity
  8
GRADE
100
AcDbPolyline
 90
        3
 70
     0
 43
0.03125
 10
29.77795378465628
 20
15.194177455335
 10
29.77795378465628
 20
15.75622742181737
 10
27.03087567972571
 20
15.55148791265749
  0
HATCH
  5
135F
330
1F
100
AcDbEntity
  8
HATCH
 62
     9
100
AcDbHatch
 10
0.0
 20
0.0
 30
0.0
210
0.0
220
0.0
230
1.0
  2
ANSI31
 70
     0
 71
     0
 91
        1
 92
        1
 93
        8
 72
     1
 10
29.13238223793931
 20
24.2963564904815
 11
29.07363569057847
 21
24.29635290650493
 72
     1
 10
29.07363569057847
 20
24.29635290650493
 11
29.04238569057847
 21
24.29635469849322
 72
     1
 10
29.04238569057847
 20
24.29635469849322
 11
28.97988569057847
 21
24.29635469849322
 72
     1
 10
28.97988569057847
 20
24.29635469849322
 11
28.94863569057847
 21
24.29635469849322
 72
     1
 10
28.94863569057847
 20
24.29635469849322
 11
28.6323822379393
 21
24.29635469849322
 72
     1
 10
28.6323822379393
 20
24.29635469849322
 11
28.6323822379393
 21
22.90764204489848
 72
     1
 10
28.6323822379393
 20
22.90764204489848
 11
29.13238223793931
 21
22.90764204489848
 72
     1
 10
29.13238223793931
 20
22.90764204489848
 11
29.13238223793931
 21
24.2963564904815
 97
        0
 75
     0
 76
     1
 52
0.0
 41
1.5
 77
     0
 78
     1
 53
45.0
 43
30.80281075038144
 44
10.26108679173482
 45
-0.1325825214724776
 46
0.1325825214724777
 79
     0
 98
        1
 10
28.94455728667058
 20
23.05064138667243
1001
GradientColor1ACI
1070
     5
1001
GradientColor2ACI
1070
     2
1001
ACAD
1010
0.0
1020
0.0
1030
0.0
  0
LWPOLYLINE
  5
1360
330
1F
100
AcDbEntity
  8
A-DE-35
  6
Continuous
100
AcDbPolyline
 90
        6
 70
     0
 43
0.0
 10
28.56107923311448
 20
24.29635461575406
 10
31.42472813393227
 20
24.29635461575406
 10
31.45597813393227
 20
24.2104959463961
 10
31.51847813393227
 20
24.38221328511201
 10
31.54972813393227
 20
24.29635461575406
 10
34.6006403855657
 20
24.29651485684375
  0
HATCH
  5
1361
330
1F
100
AcDbEntity
  8
HATCH
 62
     9
100
AcDbHatch
 10
0.0
 20
0.0
 30
0.0
210
0.0
220
0.0
230
1.0
  2
AR-SAND
 70
     0
 71
     0
 91
        1
 92
        1
 93
        6
 72
     1
 10
29.13256098895542
 20
20.14430656856855
 11
28.84401399509259
 21
20.23806117016338
 72
     1
 10
28.84401399509259
 20
20.23806117016338
 11
28.85849919936932
 21
20.28264204489848
 72
     1
 10
28.85849919936932
 20
20.28264204489849
 11
28.63256098895542
 21
20.28264204489848
 72
     2
 10
28.49193598895542
 20
20.09514204489848
 40
0.2343749999999981
 50
306.8698976458434
 51
413.1301023541566
 73
     0
 72
     1
 10
28.63256098895542
 20
19.90764204489848
 11
29.13256098895542
 21
19.90764204489848
 72
     1
 10
29.13256098895542
 20
19.90764204489848
 11
29.13256098895542
 21
20.14430656856855
 97
        0
 75
     0
 76
     1
 52
0.0
 41
0.05
 77
     0
 78
     4
 53
37.5
 43
24.31986377012468
 44
13.1669861713364
 45
-0.0031496679054804
 46
0.0963411884506579
 79
     6
 49
0.0
 49
-0.076
 49
0.0
 49
-0.085
 49
0.0
 49
-0.08125
 53
7.499999999999999
 43
24.31986377012468
 44
13.1669861713364
 45
0.0884888352633864
 46
0.141107303261487
 79
     6
 49
0.0
 49
-0.041
 49
0.0
 49
-0.0685
 49
0.0
 49
-0.02625
 53
327.5
 43
24.25836377012468
 44
13.1669861713364
 45
0.1557070930875748
 46
0.0002829526768482
 79
     6
 49
0.0
 49
-0.025
 49
0.0
 49
-0.09
 49
0.0
 49
-0.1175
 53
317.5
 43
24.25836377012468
 44
13.1669861713364
 45
0.1503063302286147
 46
0.0438837782467125
 79
     6
 49
0.0
 49
-0.0125
 49
0.0
 49
-0.059
 49
0.0
 49
-0.0675
 98
        1
 10
28.97538001311403
 20
20.19580152509154
1001
ACAD
1010
0.0
1020
0.0
1030
0.0
  0
HATCH
  5
1362
330
1F
100
AcDbEntity
  8
A-PA
100
AcDbHatch
 10
0.0
 20
0.0
 30
0.0
210
0.0
220
0.0
230
1.0
  2
AR-SAND
 70
     0
 71
     0
 91
        1
 92
        7
 72
     0
 73
     1
 93
        3
 10
29.13256098895542
 20
20.28264204489848
 10
28.85849919936932
 20
20.28264204489848
 10
29.13256098895542
 20
20.19359397147712
 97
        0
 75
     0
 76
     1
 52
0.0
 41
0.05
 77
     0
 78
     4
 53
37.5
 43
24.31986377012468
 44
13.01645698465479
 45
-0.0031496679054804
 46
0.0963411884506579
 79
     6
 49
0.0
 49
-0.076
 49
0.0
 49
-0.085
 49
0.0
 49
-0.08125
 53
7.499999999999999
 43
24.31986377012468
 44
13.01645698465479
 45
0.0884888352633864
 46
0.141107303261487
 79
     6
 49
0.0
 49
-0.041
 49
0.0
 49
-0.0685
 49
0.0
 49
-0.02625
 53
327.5
 43
24.25836377012468
 44
13.01645698465479
 45
0.1557070930875748
 46
0.0002829526768482
 79
     6
 49
0.0
 49
-0.025
 49
0.0
 49
-0.09
 49
0.0
 49
-0.1175
 53
317.5
 43
24.25836377012468
 44
13.01645698465479
 45
0.1503063302286147
 46
0.0438837782467125
 79
     6
 49
0.0
 49
-0.0125
 49
0.0
 49
-0.059
 49
0.0
 49
-0.0675
 47
0.0016312325050713
 98
        1
 10
29.07712742875741
 20
20.22318512721076
1001
ACAD
1010
0.0
1020
0.0
1030
0.0
  0
LINE
  5
1363
330
1F
100
AcDbEntity
  8
BRICK
100
AcDbLine
 10
29.13256098895542
 20
24.29635469849322
 30
0.0
 11
29.13256098895542
 21
22.90764204489848
 31
0.0
  0
HATCH
  5
1364
330
1F
100
AcDbEntity
  8
HATCH
 62
     9
100
AcDbHatch
 10
0.0
 20
0.0
 30
0.0
210
0.0
220
0.0
230
1.0
  2
ANSI31
 70
     0
 71
     0
 91
        1
 92
        7
 72
     0
 73
     1
 93
        4
 10
29.13256098895542
 20
22.5175429932839
 10
28.63256098895542
 20
22.5175429932839
 10
28.63256098895542
 20
20.28264204489848
 10
29.13256098895542
 20
20.28264204489848
 97
        0
 75
     0
 76
     1
 52
0.0
 41
1.5
 77
     0
 78
     1
 53
45.0
 43
30.80298950139756
 44
10.26108679173482
 45
-0.1325825214724776
 46
0.1325825214724777
 79
     0
 47
0.0058136491352681
 98
        1
 10
28.97964941264931
 20
21.35886948079213
1001
GradientColor1ACI
1070
     5
1001
GradientColor2ACI
1070
     2
1001
ACAD
1010
0.0
1020
0.0
1030
0.0
  0
LINE
  5
1365
330
1F
100
AcDbEntity
  8
BRICK
100
AcDbLine
 10
29.13256098895542
 20
22.5175429932839
 30
0.0
 11
29.13256098895542
 21
20.28264204489848
 31
0.0
  0
LINE
  5
1366
330
1F
100
AcDbEntity
  8
BRICK
100
AcDbLine
 10
29.13256098895542
 20
20.28264204489848
 30
0.0
 11
28.63256098895542
 21
20.28264204489848
 31
0.0
  0
LINE
  5
1367
330
1F
100
AcDbEntity
  8
BRICK
100
AcDbLine
 10
28.63256098895542
 20
20.28264204489848
 30
0.0
 11
28.63256098895542
 21
22.53264204489848
 31
0.0
  0
HATCH
  5
1368
330
1F
100
AcDbEntity
  8
HATCH
 62
     9
100
AcDbHatch
 10
0.0
 20
0.0
 30
0.0
210
0.0
220
0.0
230
1.0
  2
ANSI31
 70
     0
 71
     0
 91
        1
 92
        1
 93
        4
 72
     1
 10
29.13256098895542
 20
19.90764204489848
 11
28.63256098895542
 21
19.90764204489848
 72
     1
 10
28.63256098895542
 20
19.90764204489848
 11
28.63256098895542
 21
18.65764204489848
 72
     1
 10
28.63256098895542
 20
18.65764204489848
 11
29.13256098895542
 21
18.65764204489848
 72
     1
 10
29.13256098895542
 20
18.65764204489848
 11
29.13256098895542
 21
19.90764204489848
 97
        0
 75
     0
 76
     1
 52
0.0
 41
1.5
 77
     0
 78
     1
 53
45.0
 43
24.42514472392547
 44
12.86736761049143
 45
-0.1325825214724776
 46
0.1325825214724777
 79
     0
 98
        1
 10
28.81683356597582
 20
19.09095269993898
1001
ACAD
1010
0.0
1020
0.0
1030
0.0
  0
LINE
  5
1369
330
1F
100
AcDbEntity
  8
BRICK
100
AcDbLine
 10
29.13256098895542
 20
17.65764204489848
 30
0.0
 11
29.13256098895542
 21
19.90764204489848
 31
0.0
  0
LINE
  5
136A
330
1F
100
AcDbEntity
  8
BRICK
100
AcDbLine
 10
29.13256098895542
 20
19.90764204489848
 30
0.0
 11
28.63256098895542
 21
19.90764204489848
 31
0.0
  0
LINE
  5
136B
330
1F
100
AcDbEntity
  8
BRICK
100
AcDbLine
 10
28.63256098895542
 20
19.90764204489848
 30
0.0
 11
28.63256098895542
 21
17.65764204489848
 31
0.0
  0
LINE
  5
136C
330
1F
100
AcDbEntity
  8
BRICK
100
AcDbLine
 10
28.63256098895542
 20
17.65764204489848
 30
0.0
 11
29.13256098895542
 21
17.65764204489848
 31
0.0
  0
LINE
  5
136D
330
1F
100
AcDbEntity
  8
NOTES
100
AcDbLine
 10
29.84045378465628
 20
15.80343987293093
 30
0.0
 11
30.83163366899761
 21
15.80343987293093
 31
0.0
  0
LINE
  5
136E
330
1F
100
AcDbEntity
  8
NOTES
100
AcDbLine
 10
29.81755644777535
 20
17.60457867475052
 30
0.0
 11
30.83163366899761
 21
17.60457867475052
 31
0.0
  0
LINE
  5
136F
330
1F
100
AcDbEntity
  8
NOTES
100
AcDbLine
 10
30.76913366899761
 20
15.74093987293093
 30
0.0
 11
30.76913366899761
 21
17.66707867475052
 31
0.0
  0
INSERT
  5
1370
330
1F
100
AcDbEntity
  8
NOTES
100
AcDbBlockReference
  2
_ArchTick
 10
30.76913366899761
 20
15.80343987293093
 30
0.0
 41
0.0625
 42
0.0625
 43
0.0625
 50
270.0
  0
INSERT
  5
1371
330
1F
100
AcDbEntity
  8
NOTES
100
AcDbBlockReference
  2
_ArchTick
 10
30.76913366899761
 20
17.60457867475052
 30
0.0
 41
0.0625
 42
0.0625
 43
0.0625
 50
90.0
  0
INSERT
  5
1372
330
1F
100
AcDbEntity
  8
NOTES
100
AcDbBlockReference
  2
_ArchTick
 10
34.68679388764339
 20
19.60823688217786
 30
0.0
 41
0.0625
 42
0.0625
 43
0.0625
 50
90.0
  0
LINE
  5
1373
330
1F
100
AcDbEntity
  8
NOTES
100
AcDbLine
 10
34.68679388764339
 20
19.60823688217786
 30
0.0
 11
34.68679388764339
 21
22.5735493797385
 31
0.0
  0
INSERT
  5
1374
330
1F
100
AcDbEntity
  8
NOTES
100
AcDbBlockReference
  2
_ArchTick
 10
34.68679388764339
 20
19.60823688217786
 30
0.0
 41
-0.0625
 42
0.0625
 43
0.0625
 50
90.0
  0
LWPOLYLINE
  5
1375
330
1F
100
AcDbEntity
  8
NOTES
100
AcDbPolyline
 90
        3
 70
     0
 43
0.008
 10
34.74929388764339
 20
22.51104937973849
 10
34.68679388764339
 20
22.5735493797385
 10
34.62429388764339
 20
22.51104937973849
  0
LINE
  5
1377
330
1F
100
AcDbEntity
  8
A-DE-10
100
AcDbLine
 10
29.1794127428525
 20
24.29635469849322
 30
0.0
 11
29.1794127428525
 21
22.8033709138329
 31
0.0
  0
LINE
  5
1378
330
1F
100
AcDbEntity
  8
A-DE-10
100
AcDbLine
 10
29.1794127428525
 20
22.75408351092433
 30
0.0
 11
29.1794127428525
 21
20.1783709138329
 31
0.0
  0
LINE
  5
1379
330
1F
100
AcDbEntity
  8
A-DE-10
100
AcDbLine
 10
29.1794127428525
 20
20.1783709138329
 30
0.0
 11
28.85849919936932
 21
20.28264204489848
 31
0.0
  0
LINE
  5
137A
330
1F
100
AcDbEntity
  8
A-DE-10
100
AcDbLine
 10
28.85849919936932
 20
20.28264204489848
 30
0.0
 11
28.84401399509259
 21
20.23806117016338
 31
0.0
  0
LINE
  5
137B
330
1F
100
AcDbEntity
  8
A-DE-10
100
AcDbLine
 10
28.84401399509259
 20
20.23806117016338
 30
0.0
 11
29.1794127428525
 21
20.12908351092433
 31
0.0
  0
LINE
  5
137C
330
1F
100
AcDbEntity
  8
A-DE-10
100
AcDbLine
 10
29.1794127428525
 20
20.12908351092433
 30
0.0
 11
29.1794127428525
 21
18.40764204489848
 31
0.0
  0
LWPOLYLINE
  5
137E
330
1F
100
AcDbEntity
  8
DRAINAGE MAT
100
AcDbPolyline
 90
        2
 70
     0
 43
0.0
 10
29.22628164934647
 20
18.40764204489848
 10
29.22625823688234
 20
24.29635420154617
  0
LWPOLYLINE
  5
137F
330
1F
100
AcDbEntity
  8
DRAINAGE MAT
100
AcDbPolyline
 90
        4
 70
     0
 43
0.0
 10
29.1794127428525
 20
18.40764204489848
 10
29.5731127428525
 20
18.40764204489848
 10
29.57308873743518
 20
24.29635511277823
 10
29.22625823688234
 20
24.29635420154617
  0
LINE
  5
1380
330
1F
100
AcDbEntity
  8
NOTES
100
AcDbLine
 10
29.84045378465628
 20
16.70400927384072
 30
0.0
 11
30.28760746916893
 21
16.70400927384072
 31
0.0
  0
LINE
  5
1381
330
1F
100
AcDbEntity
  8
WEEP HOLE
100
AcDbLine
 10
28.63256098895542
 20
18.65764204489848
 30
0.0
 11
29.13256098895542
 21
18.65764204489848
 31
0.0
  0
LINE
  5
1382
330
1F
100
AcDbEntity
  8
NOTES
100
AcDbLine
 10
29.81755644777535
 20
17.60457867475052
 30
0.0
 11
30.28760746916893
 21
17.60457867475052
 31
0.0
  0
LINE
  5
1383
330
1F
100
AcDbEntity
  8
NOTES
100
AcDbLine
 10
30.22510746916893
 20
16.64150927384072
 30
0.0
 11
30.22510746916893
 21
17.66707867475052
 31
0.0
  0
INSERT
  5
1384
330
1F
100
AcDbEntity
  8
NOTES
100
AcDbBlockReference
  2
_ArchTick
 10
30.22510746916893
 20
16.70400927384072
 30
0.0
 41
0.0625
 42
0.0625
 43
0.0625
 50
270.0
  0
LWPOLYLINE
  5
1385
330
1F
100
AcDbEntity
  8
FLASHING
100
AcDbPolyline
 90
        7
 70
     0
 43
0.0681818181818182
 10
31.65799306243616
 20
15.58153309381446
 10
31.14644140613508
 20
15.0908701416169
 10
31.05721164111311
 20
15.15616400436472
 10
31.58112682302095
 20
15.68007918627256
 10
32.52793770133604
 20
15.68007918627256
 10
32.52793770133604
 20
16.50023321970057
 10
32.52793770133604
 20
18.6834925451306
  0
INSERT
  5
1386
330
1F
100
AcDbEntity
  8
NOTES
100
AcDbBlockReference
  2
_ArchTick
 10
30.22510746916893
 20
17.60457867475052
 30
0.0
 41
0.0625
 42
0.0625
 43
0.0625
 50
90.0
  0
LEADER
  5
138A
330
1F
100
AcDbEntity
  8
LEADERS
100
AcDbLeader
  3
Standard
 76
     3
 10
28.88256098895542
 20
18.15764204489848
 30
0.0
 10
28.01759078919585
 20
18.05121315821177
 30
0.0
 10
27.42233620118823
 20
18.05121315821177
 30
0.0
1001
ACAD
1000
DSTYLE
1002
{
1070
   147
1040
0.09375
1070
    77
1070
     0
1070
    41
1040
0.2344
1070
    90
1070
     1
1002
}
  0
LEADER
  5
138C
330
1F
100
AcDbEntity
  8
LEADERS
100
AcDbLeader
  3
Standard
 76
     2
 10
29.7606703161461
 20
16.5111459381753
 30
0.0
 10
27.38766298685491
 20
16.5111459381753
 30
0.0
1001
ACAD
1000
DSTYLE
1002
{
1070
   147
1040
0.09375
1070
    77
1070
     0
1070
    41
1040
0.2344
1070
    90
1070
     1
1002
}
  0
LEADER
  5
138D
330
1F
100
AcDbEntity
  8
LEADERS
100
AcDbLeader
  3
Standard
 76
     2
 10
28.63256098895542
 20
21.16304202128169
 30
0.0
 10
27.80880503959491
 20
21.16304202128169
 30
0.0
1001
ACAD
1000
DSTYLE
1002
{
1070
   147
1040
0.09375
1070
    77
1070
     0
1070
    41
1040
0.2344
1070
    90
1070
     1
1002
}
  0
LEADER
  5
138F
330
1F
100
AcDbEntity
  8
LEADERS
100
AcDbLeader
  3
Standard
 76
     2
 10
29.1794127428525
 20
20.73869457016371
 30
0.0
 10
27.57608718567727
 20
20.73869457016371
 30
0.0
1001
ACAD
1000
DSTYLE
1002
{
1070
   147
1040
0.09375
1070
    77
1070
     0
1070
    41
1040
0.2344
1070
    90
1070
     1
1002
}
  0
LEADER
  5
1390
330
1F
100
AcDbEntity
  8
LEADERS
100
AcDbLeader
  3
Standard
 76
     2
 10
28.70655641272068
 20
20.00096288410469
 30
0.0
 10
27.14088642504694
 20
20.00096288410469
 30
0.0
1001
ACAD
1000
DSTYLE
1002
{
1070
   147
1040
0.09375
1070
    77
1070
     0
1070
    41
1040
0.2344
1070
    90
1070
     1
1002
}
  0
LEADER
  5
1391
330
1F
100
AcDbEntity
  8
LEADERS
100
AcDbLeader
  3
Standard
 76
     3
 10
28.85125659723096
 20
20.26035160753093
 30
0.0
 10
27.61552558753909
 20
20.35259200001864
 30
0.0
 10
27.27059629743982
 20
20.35259200001864
 30
0.0
1001
ACAD
1000
DSTYLE
1002
{
1070
   147
1040
0.09375
1070
    77
1070
     0
1070
    41
1040
0.2344
1070
    90
1070
     1
1002
}
  0
LEADER
  5
1392
330
1F
100
AcDbEntity
  8
LEADERS
100
AcDbLeader
  3
Standard
 76
     2
 10
29.13256098895542
 20
21.58435501925876
 30
0.0
 10
27.08775406990116
 20
21.58435501925876
 30
0.0
1001
ACAD
1000
DSTYLE
1002
{
1070
   147
1040
0.09375
1070
    77
1070
     0
1070
    41
1040
0.2344
1070
    90
1070
     1
1002
}
  0
LEADER
  5
1393
330
1F
100
AcDbEntity
  8
LEADERS
100
AcDbLeader
  3
Standard
 76
     2
 10
29.70591836609934
 20
23.05659629978677
 30
0.0
 10
28.11198129018417
 20
23.05659629978677
 30
0.0
1001
ACAD
1000
DSTYLE
1002
{
1070
   147
1040
0.09375
1070
    77
1070
     0
1070
    41
1040
0.2344
1070
    90
1070
     1
1002
}
  0
LINE
  5
1394
330
1F
100
AcDbEntity
  8
WALL CONSTRUCTION
100
AcDbLine
 10
34.32639088213262
 20
19.62996451745562
 30
0.0
 11
29.77795378465628
 21
19.62996451745562
 31
0.0
  0
LINE
  5
1395
330
1F
100
AcDbEntity
  8
WALL CONSTRUCTION
100
AcDbLine
 10
29.77795378465628
 20
19.62996451745562
 30
0.0
 11
29.77795378465628
 21
24.29635461575406
 31
0.0
  0
LEADER
  5
1396
330
1F
100
AcDbEntity
  8
LEADERS
100
AcDbLeader
  3
Standard
 76
     2
 10
29.99164931204075
 20
23.53591974452807
 30
0.0
 10
27.2084445151999
 20
23.53591974452807
 30
0.0
1001
ACAD
1000
DSTYLE
1002
{
1070
   147
1040
0.09375
1070
    77
1070
     0
1070
    41
1040
0.2344
1070
    90
1070
     1
1002
}
  0
ARC
  5
1397
330
1F
100
AcDbEntity
  8
MORTAR
100
AcDbCircle
 10
28.49193598895542
 20
22.72014204489848
 30
0.0
 40
0.2343749999999981
100
AcDbArc
 50
306.8698976458433
 51
53.13010235415667
  0
HATCH
  5
1398
330
1F
100
AcDbEntity
  8
HATCH
 62
     9
100
AcDbHatch
 10
0.0
 20
0.0
 30
0.0
210
0.0
220
0.0
230
1.0
  2
AR-SAND
 70
     0
 71
     0
 91
        2
 92
        7
 72
     1
 73
     1
 93
        8
 10
29.09236469685787
 20
22.78236713558658
 42
0.0
 10
28.84401399509259
 20
22.86306117016338
 42
0.0
 10
28.85849919936932
 20
22.90764204489848
 42
0.0
 10
28.63256098895542
 20
22.90764204489848
 42
-0.5000000000000089
 10
28.63256098895542
 20
22.53264204489848
 42
0.0
 10
28.63256098895542
 20
22.5175429932839
 42
0.0
 10
29.13256098895542
 20
22.5175429932839
 42
0.0
 10
29.13256098895542
 20
22.55884189751872
 42
-0.2914229406182392
 97
        0
 92
        7
 72
     1
 73
     1
 93
        4
 10
29.13256098895542
 20
22.90764204489848
 42
0.0
 10
28.8584991993693
 20
22.90764204489848
 42
0.0
 10
29.11533898202386
 20
22.82418974073784
 42
-0.0324176523233487
 10
29.13256098895542
 20
22.84547563391374
 42
0.0
 97
        0
 75
     0
 76
     1
 52
0.0
 41
0.05
 77
     0
 78
     4
 53
37.5
 43
30.80298950139756
 44
10.45987372998765
 45
-0.0031496679054804
 46
0.0963411884506579
 79
     6
 49
0.0
 49
-0.076
 49
0.0
 49
-0.085
 49
0.0
 49
-0.08125
 53
7.499999999999999
 43
30.80298950139756
 44
10.45987372998765
 45
0.0884888352633864
 46
0.141107303261487
 79
     6
 49
0.0
 49
-0.041
 49
0.0
 49
-0.0685
 49
0.0
 49
-0.02625
 53
327.5
 43
30.74148950139756
 44
10.45987372998765
 45
0.1557070930875748
 46
0.0002829526768482
 79
     6
 49
0.0
 49
-0.025
 49
0.0
 49
-0.09
 49
0.0
 49
-0.1175
 53
317.5
 43
30.74148950139756
 44
10.45987372998765
 45
0.1503063302286147
 46
0.0438837782467125
 79
     6
 49
0.0
 49
-0.0125
 49
0.0
 49
-0.059
 49
0.0
 49
-0.0675
 47
0.0023810431174436
 98
        2
 10
28.84839449179982
 20
22.72693225610349
 10
29.06527935963393
 20
22.86979484022474
1001
GradientColor1ACI
1070
     5
1001
GradientColor2ACI
1070
     2
1001
ACAD
1010
0.0
1020
0.0
1030
0.0
  0
LINE
  5
1399
330
1F
100
AcDbEntity
  8
BRICK
100
AcDbLine
 10
29.13256098895542
 20
22.90764204489848
 30
0.0
 11
28.63256098895542
 21
22.90764204489848
 31
0.0
  0
LINE
  5
139A
330
1F
100
AcDbEntity
  8
BRICK
100
AcDbLine
 10
28.63256098895542
 20
22.90764204489848
 30
0.0
 11
28.63256098895542
 21
24.29635469849322
 31
0.0
  0
LINE
  5
139B
330
1F
100
AcDbEntity
  8
A-DE-10
100
AcDbLine
 10
28.85849919936932
 20
22.90764204489848
 30
0.0
 11
28.84401399509259
 21
22.86306117016338
 31
0.0
  0
LINE
  5
139C
330
1F
100
AcDbEntity
  8
A-DE-10
100
AcDbLine
 10
29.1794127428525
 20
22.8033709138329
 30
0.0
 11
28.85849919936932
 21
22.90764204489848
 31
0.0
  0
LINE
  5
139D
330
1F
100
AcDbEntity
  8
A-DE-10
100
AcDbLine
 10
28.84401399509259
 20
22.86306117016338
 30
0.0
 11
29.1794127428525
 21
22.75408351092433
 31
0.0
  0
LINE
  5
139E
330
1F
100
AcDbEntity
  8
BRICK
100
AcDbLine
 10
29.13256098895542
 20
22.5175429932839
 30
0.0
 11
28.63256098895542
 21
22.5175429932839
 31
0.0
  0
LINE
  5
139F
330
1F
100
AcDbEntity
  8
MORTAR
100
AcDbLine
 10
29.13256098895542
 20
22.90764204489848
 30
0.0
 11
29.13256098895542
 21
22.81859397147711
 31
0.0
  0
LINE
  5
13A0
330
1F
100
AcDbEntity
  8
MORTAR
100
AcDbLine
 10
29.13256098895542
 20
22.5175429932839
 30
0.0
 11
29.13256098895542
 21
22.76930656856855
 31
0.0
  0
ARC
  5
13A1
330
1F
100
AcDbEntity
  8
MORTAR
100
AcDbCircle
 10
28.49193598895542
 20
20.09514204489848
 30
0.0
 40
0.2343749999999981
100
AcDbArc
 50
306.8698976458433
 51
53.13010235415667
  0
LINE
  5
13A2
330
1F
100
AcDbEntity
  8
MORTAR
100
AcDbLine
 10
29.13256098895542
 20
20.28264204489848
 30
0.0
 11
29.13256098895542
 21
20.22047563391375
 31
0.0
  0
LINE
  5
13A3
330
1F
100
AcDbEntity
  8
MORTAR
  6
HIDDEN
 48
0.2
100
AcDbLine
 10
29.13256098895542
 20
19.90764204489848
 30
0.0
 11
29.13256098895542
 21
19.93384189751873
 31
0.0
  0
TEXT
  5
13A4
330
1F
100
AcDbEntity
  8
NOTES
100
AcDbText
 10
26.08966177234966
 20
23.49348036496178
 30
0.0
 40
0.1163
  1
SUBSTRATE
  7
DETAILS
100
AcDbText
  0
TEXT
  5
13A5
330
1F
100
AcDbEntity
  8
NOTES
100
AcDbText
 10
26.08966177234966
 20
21.5438731287738
 30
0.0
 40
0.1163
  1
ADHESIVE
  7
DETAILS
100
AcDbText
  0
TEXT
  5
13A6
330
1F
100
AcDbEntity
  8
NOTES
100
AcDbText
 10
26.08966177234966
 20
20.68723057834658
 30
0.0
 40
0.1163
  1
ELITE PANEL
  7
DETAILS
100
AcDbText
  0
TEXT
  5
13A7
330
1F
100
AcDbEntity
  8
NOTES
100
AcDbText
 10
26.08966177234966
 20
20.28323658536002
 30
0.0
 40
0.1163
  1
SUPPORT TIE
  7
DETAILS
100
AcDbText
  0
TEXT
  5
13A8
330
1F
100
AcDbEntity
  8
NOTES
100
AcDbText
 10
26.08966177234966
 20
19.96162341005982
 30
0.0
 40
0.1163
  1
MORTAR
  7
DETAILS
100
AcDbText
  0
TEXT
  5
13A9
330
1F
100
AcDbEntity
  8
NOTES
100
AcDbText
 10
26.08966177234966
 20
22.30221291548801
 30
0.0
 40
0.1163
  1
CORROSION RESISTANT
  7
DETAILS
100
AcDbText
  0
TEXT
  5
13AA
330
1F
100
AcDbEntity
  8
NOTES
100
AcDbText
 10
26.08966177234966
 20
22.13192729471082
 30
0.0
 40
0.1163
  1
FASTENER
  7
DETAILS
100
AcDbText
  0
TEXT
  5
13AB
330
1F
100
AcDbEntity
  8
NOTES
100
AcDbText
 10
26.08966177234966
 20
21.12027198677008
 30
0.0
 40
0.1163
  1
MASONRY VENEER
  7
DETAILS
100
AcDbText
  0
TEXT
  5
13AE
330
1F
100
AcDbEntity
  8
NOTES
100
AcDbText
 10
26.08966177234966
 20
16.45436291701446
 30
0.0
 40
0.116
  1
FOUNDATION
  7
DETAILS
100
AcDbText
  0
TEXT
  5
13AF
330
1F
100
AcDbEntity
  8
NOTES
100
AcDbText
 10
26.08966177234966
 20
16.10733273799472
 30
0.0
 40
0.116
  1
FINISHED GRADE
  7
DETAILS
100
AcDbText
  0
TEXT
  5
13B0
330
1F
100
AcDbEntity
  8
NOTES
100
AcDbText
 10
31.16258539612262
 20
15.37263129648999
 30
0.0
 40
0.09375
  1
3/8"
 50
42.70784537413948
  7
DETAILS
100
AcDbText
  0
TEXT
  5
13B1
330
1F
100
AcDbEntity
  8
NOTES
100
AcDbText
 10
31.95595872339423
 20
15.77505141182621
 30
0.0
 40
0.09375
  1
"X"
  7
DETAILS
100
AcDbText
  0
TEXT
  5
13B2
330
1F
100
AcDbEntity
  8
NOTES
100
AcDbText
 10
32.44508971797291
 20
17.60923089506191
 30
0.0
 40
0.09375
  1
3"
 50
90.0
  7
DETAILS
100
AcDbText
  0
TEXT
  5
13B3
330
1F
100
AcDbEntity
  8
NOTES
100
AcDbText
 10
31.15183821621612
 20
14.7506554723931
 30
0.0
 40
0.09375
  1
"X" TO BE DETERMINED
  7
DETAILS
100
AcDbText
  0
TEXT
  5
13B4
330
1F
100
AcDbEntity
  8
NOTES
100
AcDbText
 10
31.15183821621612
 20
14.60508343716629
 30
0.0
 40
0.09375
  1
BY SYSTEM THICKNESS
  7
DETAILS
100
AcDbText
  0
TEXT
  5
13B7
330
1F
100
AcDbEntity
  8
NOTES
100
AcDbText
 10
26.08966177234966
 20
17.70716323379741
 30
0.0
 40
0.116
  1
STARTER ANGLE FASTENED
  7
DETAILS
100
AcDbText
  0
TEXT
  5
13B8
330
1F
100
AcDbEntity
  8
NOTES
100
AcDbText
 10
26.08966177234966
 20
17.55204382339688
 30
0.0
 40
0.116
  1
TO SUBSTRATE
  7
DETAILS
100
AcDbText
  0
TEXT
  5
13B9
330
1F
100
AcDbEntity
  8
NOTES
100
AcDbText
 10
29.84771403665144
 20
19.44102307878689
 30
0.0
 40
0.09375
  1
TOP OF FOUNDATION
  7
DETAILS
100
AcDbText
  0
TEXT
  5
13BA
330
1F
100
AcDbEntity
  8
NOTES
100
AcDbText
 10
34.62894566096266
 20
19.71617820955655
 30
0.0
 40
0.09375
  1
STRUCTURE ABOVE FOUNDATION
 50
90.0
  7
DETAILS
100
AcDbText
  0
TEXT
  5
13BB
330
1F
100
AcDbEntity
  8
NOTES
100
AcDbText
 10
30.45417686950529
 20
20.76168614967837
 30
0.0
 40
0.09375
  1
BASE PLATE
  7
DETAILS
100
AcDbText
  0
TEXT
  5
13BC
330
1F
100
AcDbEntity
  8
NOTES
100
AcDbText
 10
30.6960848982861
 20
16.15989821912857
 30
0.0
 40
0.09375
  1
4" MIN. AT GRADE
 50
90.0
  7
DETAILS
100
AcDbText
  0
TEXT
  5
13BD
330
1F
100
AcDbEntity
  8
NOTES
100
AcDbText
 10
30.35084494327332
 20
16.80939608347986
 30
0.0
 40
0.09375
  1
AT PAVING
 50
90.0
  7
DETAILS
100
AcDbText
  0
TEXT
  5
13BE
330
1F
100
AcDbEntity
  8
NOTES
100
AcDbText
 10
30.18495047987463
 20
16.94825421031376
 30
0.0
 40
0.09375
  1
2" MIN.
 50
90.0
  7
DETAILS
100
AcDbText
  0
LINE
  5
13BF
330
1F
100
AcDbEntity
  8
WALL CONSTRUCTION
100
AcDbLine
 10
30.29016657374852
 20
24.29635461575406
 30
0.0
 11
30.29016657374852
 21
19.62996451745562
 31
0.0
  0
LINE
  5
13C0
330
1F
100
AcDbEntity
  8
WALL CONSTRUCTION
100
AcDbLine
 10
33.79016657374851
 20
24.29647228885226
 30
0.0
 11
33.79016657374852
 21
19.60823688217786
 31
0.0
  0
LEADER
  5
13C1
330
1F
100
AcDbEntity
  8
LEADERS
100
AcDbLeader
  3
Standard
 76
     2
 10
31.01086130912788
 20
23.94754944625105
 30
0.0
 10
28.02150240633515
 20
23.94754944625105
 30
0.0
1001
ACAD
1000
DSTYLE
1002
{
1070
   147
1040
0.09375
1070
    77
1070
     0
1070
    41
1040
0.2344
1070
    90
1070
     1
1002
}
  0
TEXT
  5
13C2
330
1F
100
AcDbEntity
  8
NOTES
100
AcDbText
 10
26.08966177234966
 20
23.90511006668476
 30
0.0
 40
0.1163
  1
WALL CONSTRUCTION
  7
DETAILS
100
AcDbText
  0
TEXT
  5
13C4
330
1F
100
AcDbEntity
  8
NOTES
100
AcDbText
 10
26.08966177234966
 20
23.00371972183705
 30
0.0
 40
0.1163
  1
BARRIER AS REQUIRED
  7
DETAILS
100
AcDbText
  0
LINE
  5
13CD
330
1F
100
AcDbEntity
  8
SCREW
  6
HIDDEN
 48
0.2
100
AcDbLine
 10
29.58310606721267
 20
22.64871470555684
 30
0.0
 11
29.5730953581719
 21
22.67223759298759
 31
0.0
  0
LINE
  5
13CF
330
1F
100
AcDbEntity
  8
SCREW
  6
HIDDEN
 48
0.2
100
AcDbLine
 10
29.65394546623496
 20
22.64871470555684
 30
0.0
 11
29.58875760343996
 21
22.8018913439081
 31
0.0
  0
LINE
  5
13D0
330
1F
100
AcDbEntity
  8
SCREW
  6
HIDDEN
 48
0.2
100
AcDbLine
 10
29.631977839466
 20
22.63797039356995
 30
0.0
 11
29.57309493383041
 21
22.77633181784276
 31
0.0
  0
LINE
  5
13D1
330
1F
100
AcDbEntity
  8
SCREW
  6
HIDDEN
 48
0.2
100
AcDbLine
 10
29.72478486525723
 20
22.64871470555684
 30
0.0
 11
29.65959700246224
 21
22.8018913439081
 31
0.0
  0
LINE
  5
13D2
330
1F
100
AcDbEntity
  8
SCREW
  6
HIDDEN
 48
0.2
100
AcDbLine
 10
29.70281723848828
 20
22.63797039356995
 30
0.0
 11
29.63712656258141
 21
22.79232852827491
 31
0.0
  0
LINE
  5
13D3
330
1F
100
AcDbEntity
  8
SCREW
  6
HIDDEN
 48
0.2
100
AcDbLine
 10
29.79562426427952
 20
22.64871470555684
 30
0.0
 11
29.73043640148452
 21
22.8018913439081
 31
0.0
  0
LINE
  5
13D4
330
1F
100
AcDbEntity
  8
SCREW
  6
HIDDEN
 48
0.2
100
AcDbLine
 10
29.77365663751056
 20
22.63797039356995
 30
0.0
 11
29.70796596160369
 21
22.79232852827491
 31
0.0
  0
LINE
  5
13D5
330
1F
100
AcDbEntity
  8
SCREW
  6
HIDDEN
 48
0.2
100
AcDbLine
 10
29.8664636633018
 20
22.64871470555684
 30
0.0
 11
29.80127580050681
 21
22.8018913439081
 31
0.0
  0
LINE
  5
13D6
330
1F
100
AcDbEntity
  8
SCREW
  6
HIDDEN
 48
0.2
100
AcDbLine
 10
29.84449603653284
 20
22.63797039356995
 30
0.0
 11
29.77880536062597
 21
22.79232852827491
 31
0.0
  0
LINE
  5
13D7
330
1F
100
AcDbEntity
  8
SCREW
  6
HIDDEN
 48
0.2
100
AcDbLine
 10
29.93730306232408
 20
22.64871470555684
 30
0.0
 11
29.87211519952909
 21
22.8018913439081
 31
0.0
  0
LINE
  5
13D8
330
1F
100
AcDbEntity
  8
SCREW
  6
HIDDEN
 48
0.2
100
AcDbLine
 10
29.91533543555513
 20
22.63797039356995
 30
0.0
 11
29.84964475964826
 21
22.79232852827491
 31
0.0
  0
LINE
  5
13D9
330
1F
100
AcDbEntity
  8
SCREW
  6
HIDDEN
 48
0.2
100
AcDbLine
 10
30.00814246134636
 20
22.64871470555684
 30
0.0
 11
29.94295459855137
 21
22.8018913439081
 31
0.0
  0
LINE
  5
13DA
330
1F
100
AcDbEntity
  8
SCREW
  6
HIDDEN
 48
0.2
100
AcDbLine
 10
29.98617483457741
 20
22.63797039356995
 30
0.0
 11
29.92048415867054
 21
22.79232852827491
 31
0.0
  0
LINE
  5
13DB
330
1F
100
AcDbEntity
  8
SCREW
  6
HIDDEN
 48
0.2
100
AcDbLine
 10
30.07898186036864
 20
22.64871470555684
 30
0.0
 11
30.01379399757365
 21
22.8018913439081
 31
0.0
  0
LINE
  5
13DC
330
1F
100
AcDbEntity
  8
SCREW
  6
HIDDEN
 48
0.2
100
AcDbLine
 10
30.05701423359969
 20
22.63797039356995
 30
0.0
 11
29.99132355769282
 21
22.79232852827491
 31
0.0
  0
LINE
  5
13DD
330
1F
100
AcDbEntity
  8
SCREW
  6
HIDDEN
 48
0.2
100
AcDbLine
 10
30.14982125939093
 20
22.64871470555684
 30
0.0
 11
30.08463339659594
 21
22.8018913439081
 31
0.0
  0
LINE
  5
13DE
330
1F
100
AcDbEntity
  8
SCREW
  6
HIDDEN
 48
0.2
100
AcDbLine
 10
30.12785363262197
 20
22.63797039356995
 30
0.0
 11
30.0621629567151
 21
22.79232852827491
 31
0.0
  0
LINE
  5
13DF
330
1F
100
AcDbEntity
  8
SCREW
  6
HIDDEN
 48
0.2
100
AcDbLine
 10
30.22066065841321
 20
22.64871470555684
 30
0.0
 11
30.15547279561822
 21
22.8018913439081
 31
0.0
  0
LINE
  5
13E0
330
1F
100
AcDbEntity
  8
SCREW
  6
HIDDEN
 48
0.2
100
AcDbLine
 10
30.19869303164425
 20
22.63797039356995
 30
0.0
 11
30.13300235573738
 21
22.79232852827491
 31
0.0
  0
LINE
  5
13E1
330
1F
100
AcDbEntity
  8
SCREW
  6
HIDDEN
 48
0.2
100
AcDbLine
 10
30.29150005743549
 20
22.64871470555684
 30
0.0
 11
30.2263121946405
 21
22.8018913439081
 31
0.0
  0
LINE
  5
13E2
330
1F
100
AcDbEntity
  8
SCREW
  6
HIDDEN
 48
0.2
100
AcDbLine
 10
30.26953243066654
 20
22.63797039356995
 30
0.0
 11
30.20384175475966
 21
22.79232852827491
 31
0.0
  0
LINE
  5
13E3
330
1F
100
AcDbEntity
  8
SCREW
  6
HIDDEN
 48
0.2
100
AcDbLine
 10
30.36233945645777
 20
22.64871470555684
 30
0.0
 11
30.29715159366278
 21
22.8018913439081
 31
0.0
  0
LINE
  5
13E4
330
1F
100
AcDbEntity
  8
SCREW
  6
HIDDEN
 48
0.2
100
AcDbLine
 10
30.34037182968882
 20
22.63797039356995
 30
0.0
 11
30.27468115378195
 21
22.79232852827491
 31
0.0
  0
LINE
  5
13E5
330
1F
100
AcDbEntity
  8
SCREW
  6
HIDDEN
 48
0.2
100
AcDbLine
 10
30.43317885548006
 20
22.64871470555684
 30
0.0
 11
30.36799099268506
 21
22.8018913439081
 31
0.0
  0
LINE
  5
13E6
330
1F
100
AcDbEntity
  8
SCREW
  6
HIDDEN
 48
0.2
100
AcDbLine
 10
30.4112112287111
 20
22.63797039356995
 30
0.0
 11
30.34552055280423
 21
22.79232852827491
 31
0.0
  0
LINE
  5
13E7
330
1F
100
AcDbEntity
  8
SCREW
  6
HIDDEN
 48
0.2
100
AcDbLine
 10
30.50401825450234
 20
22.64871470555684
 30
0.0
 11
30.43883039170734
 21
22.8018913439081
 31
0.0
  0
LINE
  5
13E8
330
1F
100
AcDbEntity
  8
SCREW
  6
HIDDEN
 48
0.2
100
AcDbLine
 10
30.48205062773338
 20
22.63797039356995
 30
0.0
 11
30.41635995182651
 21
22.79232852827491
 31
0.0
  0
LINE
  5
13E9
330
1F
100
AcDbEntity
  8
SCREW
  6
HIDDEN
 48
0.2
100
AcDbLine
 10
30.57485765352462
 20
22.64871470555684
 30
0.0
 11
30.50966979072962
 21
22.8018913439081
 31
0.0
  0
LINE
  5
13EA
330
1F
100
AcDbEntity
  8
SCREW
  6
HIDDEN
 48
0.2
100
AcDbLine
 10
30.55289002675567
 20
22.63797039356995
 30
0.0
 11
30.48719935084879
 21
22.79232852827491
 31
0.0
  0
LINE
  5
13EB
330
1F
100
AcDbEntity
  8
SCREW
  6
HIDDEN
 48
0.2
100
AcDbLine
 10
30.6456970525469
 20
22.64871470555684
 30
0.0
 11
30.58050918975191
 21
22.8018913439081
 31
0.0
  0
LINE
  5
13EC
330
1F
100
AcDbEntity
  8
SCREW
  6
HIDDEN
 48
0.2
100
AcDbLine
 10
30.62322661266685
 20
22.6391518899218
 30
0.0
 11
30.55803874987108
 21
22.79232852827491
 31
0.0
  0
LINE
  5
13ED
330
1F
100
AcDbEntity
  8
SCREW
  6
HIDDEN
 48
0.2
100
AcDbLine
 10
30.71502403425849
 20
22.64871470555684
 30
0.0
 11
30.6498361714635
 21
22.8018913439081
 31
0.0
  0
LINE
  5
13EE
330
1F
100
AcDbEntity
  8
SCREW
  6
HIDDEN
 48
0.2
100
AcDbLine
 10
30.69305640748953
 20
22.63797039356995
 30
0.0
 11
30.62736573158266
 21
22.79232852827491
 31
0.0
  0
LINE
  5
13EF
330
1F
100
AcDbEntity
  8
SCREW
  6
HIDDEN
 48
0.2
100
AcDbLine
 10
30.99748921703902
 20
22.64871470555684
 30
0.0
 11
30.93230135424403
 21
22.8018913439081
 31
0.0
  0
LINE
  5
13F0
330
1F
100
AcDbEntity
  8
SCREW
  6
HIDDEN
 48
0.2
100
AcDbLine
 10
30.97552159027007
 20
22.63797039356995
 30
0.0
 11
30.90983091436319
 21
22.79232852827491
 31
0.0
  0
LINE
  5
13FF
330
1F
100
AcDbEntity
  8
SCREW
  6
HIDDEN
 48
0.2
100
AcDbLine
 10
29.57976747875153
 20
22.65655962845181
 30
0.0
 11
29.62406676042689
 21
22.65655962845181
 31
0.0
  0
ARC
  5
1401
330
1F
100
AcDbEntity
  8
SCREW
  6
HIDDEN
 48
0.2
100
AcDbCircle
 10
29.64296165285048
 20
22.64334254956339
 30
0.0
 40
0.0122271916842302
100
AcDbArc
 50
200.0434587331203
 51
26.06314271735297
  0
ARC
  5
1402
330
1F
100
AcDbEntity
  8
SCREW
  6
HIDDEN
 48
0.2
100
AcDbCircle
 10
29.57727097694368
 20
22.79770068426819
 30
0.0
 40
0.0122271916842302
100
AcDbArc
 50
20.0434587308119
 51
109.9712356515649
  0
LINE
  5
1403
330
1F
100
AcDbEntity
  8
SCREW
  6
HIDDEN
 48
0.2
100
AcDbLine
 10
29.65060687777381
 20
22.65655962845181
 30
0.0
 11
29.69490615944917
 21
22.65655962845181
 31
0.0
  0
LINE
  5
1404
330
1F
100
AcDbEntity
  8
SCREW
  6
HIDDEN
 48
0.2
100
AcDbLine
 10
29.63590678364458
 20
22.79694137475529
 30
0.0
 11
29.59086417734995
 21
22.79694137475531
 31
0.0
  0
ARC
  5
1405
330
1F
100
AcDbEntity
  8
SCREW
  6
HIDDEN
 48
0.2
100
AcDbCircle
 10
29.71380105187276
 20
22.64334254956339
 30
0.0
 40
0.0122271916842302
100
AcDbArc
 50
200.0434587331203
 51
26.0631427173528
  0
ARC
  5
1406
330
1F
100
AcDbEntity
  8
SCREW
  6
HIDDEN
 48
0.2
100
AcDbCircle
 10
29.64811037596596
 20
22.79770068426819
 30
0.0
 40
0.0122271916842302
100
AcDbArc
 50
20.0434587308119
 51
206.0631427159179
  0
LINE
  5
1407
330
1F
100
AcDbEntity
  8
SCREW
  6
HIDDEN
 48
0.2
100
AcDbLine
 10
29.7214462767961
 20
22.65655962845181
 30
0.0
 11
29.76574555847145
 21
22.65655962845181
 31
0.0
  0
LINE
  5
1408
330
1F
100
AcDbEntity
  8
SCREW
  6
HIDDEN
 48
0.2
100
AcDbLine
 10
29.70674618266686
 20
22.79694137475529
 30
0.0
 11
29.66170357637223
 21
22.79694137475531
 31
0.0
  0
ARC
  5
1409
330
1F
100
AcDbEntity
  8
SCREW
  6
HIDDEN
 48
0.2
100
AcDbCircle
 10
29.78464045089504
 20
22.64334254956339
 30
0.0
 40
0.0122271916842302
100
AcDbArc
 50
200.0434587331203
 51
26.0631427173528
  0
ARC
  5
140A
330
1F
100
AcDbEntity
  8
SCREW
  6
HIDDEN
 48
0.2
100
AcDbCircle
 10
29.71894977498824
 20
22.79770068426819
 30
0.0
 40
0.0122271916842302
100
AcDbArc
 50
20.0434587308119
 51
206.0631427159179
  0
LINE
  5
140B
330
1F
100
AcDbEntity
  8
SCREW
  6
HIDDEN
 48
0.2
100
AcDbLine
 10
29.79228567581838
 20
22.65655962845181
 30
0.0
 11
29.83658495749374
 21
22.65655962845181
 31
0.0
  0
LINE
  5
140C
330
1F
100
AcDbEntity
  8
SCREW
  6
HIDDEN
 48
0.2
100
AcDbLine
 10
29.77758558168914
 20
22.79694137475529
 30
0.0
 11
29.73254297539451
 21
22.79694137475531
 31
0.0
  0
ARC
  5
140D
330
1F
100
AcDbEntity
  8
SCREW
  6
HIDDEN
 48
0.2
100
AcDbCircle
 10
29.85547984991732
 20
22.64334254956339
 30
0.0
 40
0.0122271916842302
100
AcDbArc
 50
200.0434587331203
 51
26.0631427173528
  0
ARC
  5
140E
330
1F
100
AcDbEntity
  8
SCREW
  6
HIDDEN
 48
0.2
100
AcDbCircle
 10
29.78978917401052
 20
22.79770068426819
 30
0.0
 40
0.0122271916842302
100
AcDbArc
 50
20.0434587308119
 51
206.0631427159179
  0
LINE
  5
140F
330
1F
100
AcDbEntity
  8
SCREW
  6
HIDDEN
 48
0.2
100
AcDbLine
 10
29.86312507484066
 20
22.65655962845181
 30
0.0
 11
29.90742435651601
 21
22.65655962845181
 31
0.0
  0
LINE
  5
1410
330
1F
100
AcDbEntity
  8
SCREW
  6
HIDDEN
 48
0.2
100
AcDbLine
 10
29.84842498071142
 20
22.79694137475529
 30
0.0
 11
29.80338237441679
 21
22.79694137475531
 31
0.0
  0
ARC
  5
1411
330
1F
100
AcDbEntity
  8
SCREW
  6
HIDDEN
 48
0.2
100
AcDbCircle
 10
29.9263192489396
 20
22.64334254956339
 30
0.0
 40
0.0122271916842302
100
AcDbArc
 50
200.0434587331203
 51
26.0631427173528
  0
ARC
  5
1412
330
1F
100
AcDbEntity
  8
SCREW
  6
HIDDEN
 48
0.2
100
AcDbCircle
 10
29.86062857303281
 20
22.79770068426819
 30
0.0
 40
0.0122271916842302
100
AcDbArc
 50
20.0434587308119
 51
206.0631427159179
  0
LINE
  5
1413
330
1F
100
AcDbEntity
  8
SCREW
  6
HIDDEN
 48
0.2
100
AcDbLine
 10
29.93396447386294
 20
22.65655962845181
 30
0.0
 11
29.9782637555383
 21
22.65655962845181
 31
0.0
  0
LINE
  5
1414
330
1F
100
AcDbEntity
  8
SCREW
  6
HIDDEN
 48
0.2
100
AcDbLine
 10
29.91926437973371
 20
22.79694137475529
 30
0.0
 11
29.87422177343908
 21
22.79694137475531
 31
0.0
  0
ARC
  5
1415
330
1F
100
AcDbEntity
  8
SCREW
  6
HIDDEN
 48
0.2
100
AcDbCircle
 10
29.99715864796188
 20
22.64334254956339
 30
0.0
 40
0.0122271916842302
100
AcDbArc
 50
200.0434587331203
 51
26.0631427173528
  0
ARC
  5
1416
330
1F
100
AcDbEntity
  8
SCREW
  6
HIDDEN
 48
0.2
100
AcDbCircle
 10
29.93146797205509
 20
22.79770068426819
 30
0.0
 40
0.0122271916842302
100
AcDbArc
 50
20.0434587308119
 51
206.0631427159179
  0
LINE
  5
1417
330
1F
100
AcDbEntity
  8
SCREW
  6
HIDDEN
 48
0.2
100
AcDbLine
 10
30.00480387288523
 20
22.65655962845181
 30
0.0
 11
30.04910315456058
 21
22.65655962845181
 31
0.0
  0
LINE
  5
1418
330
1F
100
AcDbEntity
  8
SCREW
  6
HIDDEN
 48
0.2
100
AcDbLine
 10
29.99010377875599
 20
22.79694137475529
 30
0.0
 11
29.94506117246136
 21
22.79694137475531
 31
0.0
  0
ARC
  5
1419
330
1F
100
AcDbEntity
  8
SCREW
  6
HIDDEN
 48
0.2
100
AcDbCircle
 10
30.06799804698417
 20
22.64334254956339
 30
0.0
 40
0.0122271916842302
100
AcDbArc
 50
200.0434587331203
 51
26.0631427173528
  0
ARC
  5
141A
330
1F
100
AcDbEntity
  8
SCREW
  6
HIDDEN
 48
0.2
100
AcDbCircle
 10
30.00230737107737
 20
22.79770068426819
 30
0.0
 40
0.0122271916842302
100
AcDbArc
 50
20.0434587308119
 51
206.0631427159179
  0
LINE
  5
141B
330
1F
100
AcDbEntity
  8
SCREW
  6
HIDDEN
 48
0.2
100
AcDbLine
 10
30.07564327190751
 20
22.65655962845181
 30
0.0
 11
30.11994255358287
 21
22.65655962845181
 31
0.0
  0
LINE
  5
141C
330
1F
100
AcDbEntity
  8
SCREW
  6
HIDDEN
 48
0.2
100
AcDbLine
 10
30.06094317777827
 20
22.79694137475529
 30
0.0
 11
30.01590057148364
 21
22.79694137475531
 31
0.0
  0
ARC
  5
141D
330
1F
100
AcDbEntity
  8
SCREW
  6
HIDDEN
 48
0.2
100
AcDbCircle
 10
30.13883744600645
 20
22.64334254956339
 30
0.0
 40
0.0122271916842302
100
AcDbArc
 50
200.0434587331203
 51
26.0631427173528
  0
ARC
  5
141E
330
1F
100
AcDbEntity
  8
SCREW
  6
HIDDEN
 48
0.2
100
AcDbCircle
 10
30.07314677009965
 20
22.79770068426819
 30
0.0
 40
0.0122271916842302
100
AcDbArc
 50
20.0434587308119
 51
206.0631427159179
  0
LINE
  5
141F
330
1F
100
AcDbEntity
  8
SCREW
  6
HIDDEN
 48
0.2
100
AcDbLine
 10
30.14648267092979
 20
22.65655962845181
 30
0.0
 11
30.19078195260514
 21
22.65655962845181
 31
0.0
  0
LINE
  5
1420
330
1F
100
AcDbEntity
  8
SCREW
  6
HIDDEN
 48
0.2
100
AcDbLine
 10
30.13178257680055
 20
22.79694137475529
 30
0.0
 11
30.08673997050592
 21
22.79694137475531
 31
0.0
  0
ARC
  5
1421
330
1F
100
AcDbEntity
  8
SCREW
  6
HIDDEN
 48
0.2
100
AcDbCircle
 10
30.20967684502873
 20
22.64334254956339
 30
0.0
 40
0.0122271916842302
100
AcDbArc
 50
200.0434587331203
 51
26.0631427173528
  0
ARC
  5
1422
330
1F
100
AcDbEntity
  8
SCREW
  6
HIDDEN
 48
0.2
100
AcDbCircle
 10
30.14398616912194
 20
22.79770068426819
 30
0.0
 40
0.0122271916842302
100
AcDbArc
 50
20.0434587308119
 51
206.0631427159179
  0
LINE
  5
1423
330
1F
100
AcDbEntity
  8
SCREW
  6
HIDDEN
 48
0.2
100
AcDbLine
 10
30.21732206995207
 20
22.65655962845181
 30
0.0
 11
30.26162135162743
 21
22.65655962845181
 31
0.0
  0
LINE
  5
1424
330
1F
100
AcDbEntity
  8
SCREW
  6
HIDDEN
 48
0.2
100
AcDbLine
 10
30.20262197582284
 20
22.79694137475529
 30
0.0
 11
30.1575793695282
 21
22.79694137475531
 31
0.0
  0
ARC
  5
1425
330
1F
100
AcDbEntity
  8
SCREW
  6
HIDDEN
 48
0.2
100
AcDbCircle
 10
30.28051624405101
 20
22.64334254956339
 30
0.0
 40
0.0122271916842302
100
AcDbArc
 50
200.0434587331203
 51
26.0631427173528
  0
ARC
  5
1426
330
1F
100
AcDbEntity
  8
SCREW
  6
HIDDEN
 48
0.2
100
AcDbCircle
 10
30.21482556814422
 20
22.79770068426819
 30
0.0
 40
0.0122271916842302
100
AcDbArc
 50
20.0434587308119
 51
206.0631427159179
  0
LINE
  5
1427
330
1F
100
AcDbEntity
  8
SCREW
  6
HIDDEN
 48
0.2
100
AcDbLine
 10
30.28816146897435
 20
22.65655962845181
 30
0.0
 11
30.33246075064971
 21
22.65655962845181
 31
0.0
  0
LINE
  5
1428
330
1F
100
AcDbEntity
  8
SCREW
  6
HIDDEN
 48
0.2
100
AcDbLine
 10
30.27346137484512
 20
22.79694137475529
 30
0.0
 11
30.22841876855049
 21
22.79694137475531
 31
0.0
  0
ARC
  5
1429
330
1F
100
AcDbEntity
  8
SCREW
  6
HIDDEN
 48
0.2
100
AcDbCircle
 10
30.3513556430733
 20
22.64334254956339
 30
0.0
 40
0.0122271916842302
100
AcDbArc
 50
200.0434587331203
 51
26.0631427173528
  0
ARC
  5
142A
330
1F
100
AcDbEntity
  8
SCREW
  6
HIDDEN
 48
0.2
100
AcDbCircle
 10
30.2856649671665
 20
22.79770068426819
 30
0.0
 40
0.0122271916842302
100
AcDbArc
 50
20.0434587308119
 51
206.0631427159179
  0
LINE
  5
142B
330
1F
100
AcDbEntity
  8
SCREW
  6
HIDDEN
 48
0.2
100
AcDbLine
 10
30.35900086799664
 20
22.65655962845181
 30
0.0
 11
30.40330014967199
 21
22.65655962845181
 31
0.0
  0
LINE
  5
142C
330
1F
100
AcDbEntity
  8
SCREW
  6
HIDDEN
 48
0.2
100
AcDbLine
 10
30.3443007738674
 20
22.79694137475529
 30
0.0
 11
30.29925816757277
 21
22.79694137475531
 31
0.0
  0
ARC
  5
142D
330
1F
100
AcDbEntity
  8
SCREW
  6
HIDDEN
 48
0.2
100
AcDbCircle
 10
30.42219504209558
 20
22.64334254956339
 30
0.0
 40
0.0122271916842302
100
AcDbArc
 50
200.0434587331203
 51
26.0631427173528
  0
ARC
  5
142E
330
1F
100
AcDbEntity
  8
SCREW
  6
HIDDEN
 48
0.2
100
AcDbCircle
 10
30.35650436618878
 20
22.79770068426819
 30
0.0
 40
0.0122271916842302
100
AcDbArc
 50
20.0434587308119
 51
206.0631427159179
  0
LINE
  5
142F
330
1F
100
AcDbEntity
  8
SCREW
  6
HIDDEN
 48
0.2
100
AcDbLine
 10
30.42984026701891
 20
22.65655962845181
 30
0.0
 11
30.47413954869427
 21
22.65655962845181
 31
0.0
  0
LINE
  5
1430
330
1F
100
AcDbEntity
  8
SCREW
  6
HIDDEN
 48
0.2
100
AcDbLine
 10
30.41514017288968
 20
22.79694137475529
 30
0.0
 11
30.37009756659505
 21
22.79694137475531
 31
0.0
  0
ARC
  5
1431
330
1F
100
AcDbEntity
  8
SCREW
  6
HIDDEN
 48
0.2
100
AcDbCircle
 10
30.49303444111786
 20
22.64334254956339
 30
0.0
 40
0.0122271916842302
100
AcDbArc
 50
200.0434587331203
 51
26.0631427173528
  0
ARC
  5
1432
330
1F
100
AcDbEntity
  8
SCREW
  6
HIDDEN
 48
0.2
100
AcDbCircle
 10
30.42734376521107
 20
22.79770068426819
 30
0.0
 40
0.0122271916842302
100
AcDbArc
 50
20.0434587308119
 51
206.0631427159179
  0
LINE
  5
1433
330
1F
100
AcDbEntity
  8
SCREW
  6
HIDDEN
 48
0.2
100
AcDbLine
 10
30.5006796660412
 20
22.65655962845181
 30
0.0
 11
30.54497894771655
 21
22.65655962845181
 31
0.0
  0
LINE
  5
1434
330
1F
100
AcDbEntity
  8
SCREW
  6
HIDDEN
 48
0.2
100
AcDbLine
 10
30.48597957191196
 20
22.79694137475529
 30
0.0
 11
30.44093696561733
 21
22.79694137475531
 31
0.0
  0
ARC
  5
1435
330
1F
100
AcDbEntity
  8
SCREW
  6
HIDDEN
 48
0.2
100
AcDbCircle
 10
30.56387384014014
 20
22.64334254956339
 30
0.0
 40
0.0122271916842302
100
AcDbArc
 50
200.0434587331203
 51
26.0631427173528
  0
ARC
  5
1436
330
1F
100
AcDbEntity
  8
SCREW
  6
HIDDEN
 48
0.2
100
AcDbCircle
 10
30.49818316423334
 20
22.79770068426819
 30
0.0
 40
0.0122271916842302
100
AcDbArc
 50
20.0434587308119
 51
206.0631427159179
  0
LINE
  5
1437
330
1F
100
AcDbEntity
  8
SCREW
  6
HIDDEN
 48
0.2
100
AcDbLine
 10
30.57151906506348
 20
22.65655962845181
 30
0.0
 11
30.61581834673884
 21
22.65655962845181
 31
0.0
  0
LINE
  5
1438
330
1F
100
AcDbEntity
  8
SCREW
  6
HIDDEN
 48
0.2
100
AcDbLine
 10
30.55681897093424
 20
22.79694137475529
 30
0.0
 11
30.51177636463962
 21
22.79694137475531
 31
0.0
  0
ARC
  5
1439
330
1F
100
AcDbEntity
  8
SCREW
  6
HIDDEN
 48
0.2
100
AcDbCircle
 10
30.63471323916242
 20
22.64334254956339
 30
0.0
 40
0.0122271916842302
100
AcDbArc
 50
200.0434587413495
 51
26.0631427173528
  0
ARC
  5
143A
330
1F
100
AcDbEntity
  8
SCREW
  6
HIDDEN
 48
0.2
100
AcDbCircle
 10
30.56902256325563
 20
22.79770068426819
 30
0.0
 40
0.0122271916842302
100
AcDbArc
 50
20.0434587308119
 51
206.0631427159179
  0
LINE
  5
143B
330
1F
100
AcDbEntity
  8
SCREW
  6
HIDDEN
 48
0.2
100
AcDbLine
 10
30.64235846408577
 20
22.65655962845181
 30
0.0
 11
30.68665774576112
 21
22.65655962845181
 31
0.0
  0
LINE
  5
143C
330
1F
100
AcDbEntity
  8
SCREW
  6
HIDDEN
 48
0.2
100
AcDbLine
 10
30.62614595264583
 20
22.79694137475529
 30
0.0
 11
30.5826157636619
 21
22.79694137475531
 31
0.0
  0
ARC
  5
143D
330
1F
100
AcDbEntity
  8
SCREW
  6
HIDDEN
 48
0.2
100
AcDbCircle
 10
30.70404022087401
 20
22.64334254956339
 30
0.0
 40
0.0122271916842302
100
AcDbArc
 50
200.0434587331203
 51
26.0631427173528
  0
ARC
  5
143E
330
1F
100
AcDbEntity
  8
SCREW
  6
HIDDEN
 48
0.2
100
AcDbCircle
 10
30.63834954496722
 20
22.79770068426819
 30
0.0
 40
0.0122271916842302
100
AcDbArc
 50
20.0434587308119
 51
206.0631427159179
  0
LINE
  5
143F
330
1F
100
AcDbEntity
  8
SCREW
  6
HIDDEN
 48
0.2
100
AcDbLine
 10
30.71168544579735
 20
22.65655962845181
 30
0.0
 11
30.7559847274727
 21
22.6565596284518
 31
0.0
  0
LINE
  5
1440
330
1F
100
AcDbEntity
  8
SCREW
  6
HIDDEN
 48
0.2
100
AcDbLine
 10
30.69698535166811
 20
22.7969413747553
 30
0.0
 11
30.65194274537348
 21
22.79694137475531
 31
0.0
  0
ARC
  5
1441
330
1F
100
AcDbEntity
  8
SCREW
  6
HIDDEN
 48
0.2
100
AcDbCircle
 10
30.98650540365455
 20
22.64334254956339
 30
0.0
 40
0.0122271916842302
100
AcDbArc
 50
200.0434587331203
 51
26.0631427173528
  0
ARC
  5
1442
330
1F
100
AcDbEntity
  8
SCREW
  6
HIDDEN
 48
0.2
100
AcDbCircle
 10
30.92081472774775
 20
22.79770068426819
 30
0.0
 40
0.0122271916842302
100
AcDbArc
 50
20.0434587308119
 51
206.0631427159179
  0
LINE
  5
1443
330
1F
100
AcDbEntity
  8
SCREW
  6
HIDDEN
 48
0.2
100
AcDbLine
 10
29.54322087875612
 20
22.56037011042101
 30
0.0
 11
29.54322087875612
 21
22.78177353343213
 31
0.0
  0
LINE
  5
1444
330
1F
100
AcDbEntity
  8
SCREW
  6
HIDDEN
 48
0.2
100
AcDbLine
 10
29.54322087875612
 20
22.8310609363407
 30
0.0
 11
29.54322087875612
 21
22.87991397937596
 31
0.0
  0
LINE
  5
1445
330
1F
100
AcDbEntity
  8
SCREW
  6
HIDDEN
 48
0.2
100
AcDbLine
 10
29.54322087875612
 20
22.56037011042101
 30
0.0
 11
29.57309516288876
 21
22.56037011042101
 31
0.0
  0
ARC
  5
1446
330
1F
100
AcDbEntity
  8
SCREW
  6
HIDDEN
 48
0.2
100
AcDbCircle
 10
29.68161346382133
 20
22.72014204489848
 30
0.0
 40
0.2113754447605181
100
AcDbArc
 50
130.8987284875914
 51
144.7378328725499
  0
ARC
  5
1447
330
1F
100
AcDbEntity
  8
SCREW
  6
HIDDEN
 48
0.2
100
AcDbCircle
 10
29.68161346382133
 20
22.72014204489848
 30
0.0
 40
0.2113754447605181
100
AcDbArc
 50
157.6998079902702
 51
229.1012715124084
  0
LINE
  5
1448
330
1F
100
AcDbEntity
  8
SCREW
  6
HIDDEN
 48
0.2
100
AcDbLine
 10
29.54322087875612
 20
22.87991397937596
 30
0.0
 11
29.57309516288876
 21
22.87991397937596
 31
0.0
  0
LINE
  5
1449
330
1F
100
AcDbEntity
  8
SCREW
  6
HIDDEN
 48
0.2
100
AcDbLine
 10
30.78586343328077
 20
22.64871470555685
 30
0.0
 11
30.72067557048578
 21
22.8018913439081
 31
0.0
  0
LINE
  5
144A
330
1F
100
AcDbEntity
  8
SCREW
  6
HIDDEN
 48
0.2
100
AcDbLine
 10
30.76389580651182
 20
22.63797039356996
 30
0.0
 11
30.69820513060494
 21
22.79232852827492
 31
0.0
  0
ARC
  5
144B
330
1F
100
AcDbEntity
  8
SCREW
  6
HIDDEN
 48
0.2
100
AcDbCircle
 10
30.77487961989629
 20
22.6433425495634
 30
0.0
 40
0.0122271916842302
100
AcDbArc
 50
200.0434587331203
 51
26.0631427173528
  0
ARC
  5
144C
330
1F
100
AcDbEntity
  8
SCREW
  6
HIDDEN
 48
0.2
100
AcDbCircle
 10
30.70918894398949
 20
22.7977006842682
 30
0.0
 40
0.0122271916842302
100
AcDbArc
 50
20.0434587308119
 51
206.0631427159179
  0
LINE
  5
144D
330
1F
100
AcDbEntity
  8
SCREW
  6
HIDDEN
 48
0.2
100
AcDbLine
 10
30.78252484481963
 20
22.65655962845182
 30
0.0
 11
30.82682412649499
 21
22.65655962845181
 31
0.0
  0
LINE
  5
144E
330
1F
100
AcDbEntity
  8
SCREW
  6
HIDDEN
 48
0.2
100
AcDbLine
 10
30.76782475069039
 20
22.79694137475531
 30
0.0
 11
30.72278214439576
 21
22.79694137475531
 31
0.0
  0
LINE
  5
144F
330
1F
100
AcDbEntity
  8
SCREW
  6
HIDDEN
 48
0.2
100
AcDbLine
 10
30.85670283230305
 20
22.64871470555686
 30
0.0
 11
30.79151496950806
 21
22.80189134390811
 31
0.0
  0
LINE
  5
1450
330
1F
100
AcDbEntity
  8
SCREW
  6
HIDDEN
 48
0.2
100
AcDbLine
 10
30.8347352055341
 20
22.63797039356997
 30
0.0
 11
30.76904452962722
 21
22.79232852827492
 31
0.0
  0
ARC
  5
1451
330
1F
100
AcDbEntity
  8
SCREW
  6
HIDDEN
 48
0.2
100
AcDbCircle
 10
30.84571901891858
 20
22.64334254956341
 30
0.0
 40
0.0122271916842302
100
AcDbArc
 50
200.0434587331203
 51
26.0631427173528
  0
ARC
  5
1452
330
1F
100
AcDbEntity
  8
SCREW
  6
HIDDEN
 48
0.2
100
AcDbCircle
 10
30.78002834301178
 20
22.79770068426821
 30
0.0
 40
0.0122271916842302
100
AcDbArc
 50
20.0434587308119
 51
206.0631427159179
  0
LINE
  5
1453
330
1F
100
AcDbEntity
  8
SCREW
  6
HIDDEN
 48
0.2
100
AcDbLine
 10
30.85336424384192
 20
22.65655962845182
 30
0.0
 11
30.89766352551727
 21
22.65655962845182
 31
0.0
  0
LINE
  5
1454
330
1F
100
AcDbEntity
  8
SCREW
  6
HIDDEN
 48
0.2
100
AcDbLine
 10
30.83866414971268
 20
22.79694137475531
 30
0.0
 11
30.79362154341805
 21
22.79694137475532
 31
0.0
  0
LINE
  5
1455
330
1F
100
AcDbEntity
  8
SCREW
  6
HIDDEN
 48
0.2
100
AcDbLine
 10
30.92754223132534
 20
22.64871470555686
 30
0.0
 11
30.86235436853034
 21
22.80189134390812
 31
0.0
  0
LINE
  5
1456
330
1F
100
AcDbEntity
  8
SCREW
  6
HIDDEN
 48
0.2
100
AcDbLine
 10
30.90557460455638
 20
22.63797039356997
 30
0.0
 11
30.83988392864951
 21
22.79232852827493
 31
0.0
  0
ARC
  5
1457
330
1F
100
AcDbEntity
  8
SCREW
  6
HIDDEN
 48
0.2
100
AcDbCircle
 10
30.91655841794086
 20
22.64334254956342
 30
0.0
 40
0.0122271916842302
100
AcDbArc
 50
200.0434587331203
 51
26.0631427173528
  0
ARC
  5
1458
330
1F
100
AcDbEntity
  8
SCREW
  6
HIDDEN
 48
0.2
100
AcDbCircle
 10
30.85086774203406
 20
22.79770068426822
 30
0.0
 40
0.0122271916842302
100
AcDbArc
 50
20.0434587308119
 51
206.0631427159179
  0
LINE
  5
1459
330
1F
100
AcDbEntity
  8
SCREW
  6
HIDDEN
 48
0.2
100
AcDbLine
 10
30.92420364286419
 20
22.65655962845183
 30
0.0
 11
30.96850292453955
 21
22.65655962845182
 31
0.0
  0
LINE
  5
145A
330
1F
100
AcDbEntity
  8
SCREW
  6
HIDDEN
 48
0.2
100
AcDbLine
 10
30.90950354873496
 20
22.79694137475532
 30
0.0
 11
30.86446094244033
 21
22.79694137475533
 31
0.0
  0
ARC
  5
145B
330
1F
100
AcDbEntity
  8
SCREW
  6
HIDDEN
 48
0.2
100
AcDbCircle
 10
31.41114636544735
 20
22.72164657461769
 30
0.0
 40
0.0161267757294318
100
AcDbArc
 50
0.0
 51
90.0000000000171
  0
ARC
  5
145C
330
1F
100
AcDbEntity
  8
SCREW
  6
HIDDEN
 48
0.2
100
AcDbCircle
 10
31.52275815016378
 20
22.17566188414852
 30
0.0
 40
0.5414855494839421
100
AcDbArc
 50
101.8951553356812
 51
117.0150992582616
  0
ARC
  5
145D
330
1F
100
AcDbEntity
  8
SCREW
  6
HIDDEN
 48
0.2
100
AcDbCircle
 10
31.41114636544735
 20
22.72164657461769
 30
0.0
 40
0.0161267757294318
100
AcDbArc
 50
269.9999999999829
 51
0.0
  0
ARC
  5
145E
330
1F
100
AcDbEntity
  8
SCREW
  6
HIDDEN
 48
0.2
100
AcDbCircle
 10
31.52275815016378
 20
23.26763126508685
 30
0.0
 40
0.5414855494839421
100
AcDbArc
 50
240.0518963641911
 51
258.1048446643186
  0
LINE
  5
145F
330
1F
100
AcDbEntity
  8
SCREW
  6
HIDDEN
 48
0.2
100
AcDbLine
 10
31.25244023487366
 20
22.79844598721362
 30
0.0
 11
31.21402530066928
 21
22.79844598721363
 31
0.0
  0
LINE
  5
1460
330
1F
100
AcDbEntity
  8
SCREW
  6
HIDDEN
 48
0.2
100
AcDbLine
 10
31.27376800109316
 20
22.65806424091016
 30
0.0
 11
31.27680171806504
 21
22.65806424091016
 31
0.0
  0
LINE
  5
1461
330
1F
100
AcDbEntity
  8
SCREW
  6
HIDDEN
 48
0.2
100
AcDbLine
 10
31.06743620275271
 20
22.64871470555682
 30
0.0
 11
31.00224833995771
 21
22.80189134390807
 31
0.0
  0
LINE
  5
1462
330
1F
100
AcDbEntity
  8
SCREW
  6
HIDDEN
 48
0.2
100
AcDbLine
 10
31.04546857598375
 20
22.63797039356993
 30
0.0
 11
30.97977790007688
 21
22.79232852827488
 31
0.0
  0
ARC
  5
1463
330
1F
100
AcDbEntity
  8
SCREW
  6
HIDDEN
 48
0.2
100
AcDbCircle
 10
31.05645238936823
 20
22.64334254956337
 30
0.0
 40
0.0122271916842302
100
AcDbArc
 50
200.0434587331203
 51
26.0631427173528
  0
ARC
  5
1464
330
1F
100
AcDbEntity
  8
SCREW
  6
HIDDEN
 48
0.2
100
AcDbCircle
 10
30.99076171346144
 20
22.79770068426817
 30
0.0
 40
0.0122271916842302
100
AcDbArc
 50
20.0434587308119
 51
206.0631427159179
  0
LINE
  5
1465
330
1F
100
AcDbEntity
  8
SCREW
  6
HIDDEN
 48
0.2
100
AcDbLine
 10
30.99415062857788
 20
22.65655962845181
 30
0.0
 11
31.03844991025324
 21
22.6565596284518
 31
0.0
  0
LINE
  5
1466
330
1F
100
AcDbEntity
  8
SCREW
  6
HIDDEN
 48
0.2
100
AcDbLine
 10
30.97945053444865
 20
22.7969413747553
 30
0.0
 11
30.93440792815401
 21
22.79694137475531
 31
0.0
  0
LINE
  5
1467
330
1F
100
AcDbEntity
  8
SCREW
  6
HIDDEN
 48
0.2
100
AcDbLine
 10
31.13738318846639
 20
22.6487147055568
 30
0.0
 11
31.0721953256714
 21
22.80189134390806
 31
0.0
  0
LINE
  5
1468
330
1F
100
AcDbEntity
  8
SCREW
  6
HIDDEN
 48
0.2
100
AcDbLine
 10
31.11541556169744
 20
22.63797039356991
 30
0.0
 11
31.04972488579057
 21
22.79232852827487
 31
0.0
  0
ARC
  5
1469
330
1F
100
AcDbEntity
  8
SCREW
  6
HIDDEN
 48
0.2
100
AcDbCircle
 10
31.12639937508192
 20
22.64334254956335
 30
0.0
 40
0.0122271916842302
100
AcDbArc
 50
200.0434587331203
 51
26.0631427173528
  0
ARC
  5
146A
330
1F
100
AcDbEntity
  8
SCREW
  6
HIDDEN
 48
0.2
100
AcDbCircle
 10
31.06070869917512
 20
22.79770068426815
 30
0.0
 40
0.0122271916842302
100
AcDbArc
 50
20.0434587308119
 51
206.0631427159179
  0
LINE
  5
146B
330
1F
100
AcDbEntity
  8
SCREW
  6
HIDDEN
 48
0.2
100
AcDbLine
 10
31.06409761429157
 20
22.65655962845179
 30
0.0
 11
31.10839689596692
 21
22.65655962845178
 31
0.0
  0
LINE
  5
146C
330
1F
100
AcDbEntity
  8
SCREW
  6
HIDDEN
 48
0.2
100
AcDbLine
 10
31.04939752016234
 20
22.79694137475528
 30
0.0
 11
31.0043549138677
 21
22.79694137475528
 31
0.0
  0
LINE
  5
146D
330
1F
100
AcDbEntity
  8
SCREW
  6
HIDDEN
 48
0.2
100
AcDbLine
 10
31.20733017418008
 20
22.64871470555678
 30
0.0
 11
31.14214231138509
 21
22.80189134390803
 31
0.0
  0
LINE
  5
146E
330
1F
100
AcDbEntity
  8
SCREW
  6
HIDDEN
 48
0.2
100
AcDbLine
 10
31.18536254741113
 20
22.63797039356989
 30
0.0
 11
31.11967187150426
 21
22.79232852827485
 31
0.0
  0
ARC
  5
146F
330
1F
100
AcDbEntity
  8
SCREW
  6
HIDDEN
 48
0.2
100
AcDbCircle
 10
31.19634636079561
 20
22.64334254956333
 30
0.0
 40
0.0122271916842302
100
AcDbArc
 50
200.0434587331203
 51
26.0631427173528
  0
ARC
  5
1470
330
1F
100
AcDbEntity
  8
SCREW
  6
HIDDEN
 48
0.2
100
AcDbCircle
 10
31.13065568488881
 20
22.79770068426813
 30
0.0
 40
0.0122271916842302
100
AcDbArc
 50
20.0434587308119
 51
206.0631427159179
  0
LINE
  5
1471
330
1F
100
AcDbEntity
  8
SCREW
  6
HIDDEN
 48
0.2
100
AcDbLine
 10
31.13404460000526
 20
22.65655962845177
 30
0.0
 11
31.17834388168061
 21
22.65655962845176
 31
0.0
  0
LINE
  5
1472
330
1F
100
AcDbEntity
  8
SCREW
  6
HIDDEN
 48
0.2
100
AcDbLine
 10
31.11934450587602
 20
22.79694137475526
 30
0.0
 11
31.07430189958139
 21
22.79694137475527
 31
0.0
  0
LINE
  5
1473
330
1F
100
AcDbEntity
  8
SCREW
  6
HIDDEN
 48
0.2
100
AcDbLine
 10
31.27727715989377
 20
22.64871470555676
 30
0.0
 11
31.21208929709878
 21
22.80189134390801
 31
0.0
  0
LINE
  5
1474
330
1F
100
AcDbEntity
  8
SCREW
  6
HIDDEN
 48
0.2
100
AcDbLine
 10
31.25530953312482
 20
22.63797039356987
 30
0.0
 11
31.18961885721794
 21
22.79232852827482
 31
0.0
  0
ARC
  5
1475
330
1F
100
AcDbEntity
  8
SCREW
  6
HIDDEN
 48
0.2
100
AcDbCircle
 10
31.26629334650929
 20
22.64334254956331
 30
0.0
 40
0.0122271916842302
100
AcDbArc
 50
200.0434587331203
 51
26.0631427173528
  0
ARC
  5
1476
330
1F
100
AcDbEntity
  8
SCREW
  6
HIDDEN
 48
0.2
100
AcDbCircle
 10
31.2006026706025
 20
22.79770068426811
 30
0.0
 40
0.0122271916842302
100
AcDbArc
 50
20.0434587308119
 51
206.0631427159179
  0
LINE
  5
1477
330
1F
100
AcDbEntity
  8
SCREW
  6
HIDDEN
 48
0.2
100
AcDbLine
 10
31.20399158571894
 20
22.65655962845174
 30
0.0
 11
31.2482908673943
 21
22.65655962845174
 31
0.0
  0
LINE
  5
1478
330
1F
100
AcDbEntity
  8
SCREW
  6
HIDDEN
 48
0.2
100
AcDbLine
 10
31.18929149158971
 20
22.79694137475523
 30
0.0
 11
31.14424888529508
 21
22.79694137475524
 31
0.0
  0
LEADER
  5
1479
330
1F
100
AcDbEntity
  8
LEADERS
100
AcDbLeader
  3
Standard
 76
     3
 10
29.47599299138948
 20
22.671154291688
 30
0.0
 10
28.1012923455588
 20
22.1712653542301
 30
0.0
 10
27.28602218020534
 20
22.1712653542301
 30
0.0
1001
ACAD
1000
DSTYLE
1002
{
1070
   147
1040
0.09375
1070
    77
1070
     0
1070
    41
1040
0.2344
1070
    90
1070
     1
1002
}
  0
LINE
  5
147A
330
1F
100
AcDbEntity
  8
WALL CONSTRUCTION
100
AcDbLine
 10
34.32639088213262
 20
24.29650045261457
 30
0.0
 11
34.32639088213262
 21
19.60823688217786
 31
0.0
  0
LWPOLYLINE
  5
147B
330
1F
100
AcDbEntity
  8
FLASHING TAPE
100
AcDbPolyline
 90
        4
 70
     0
 43
0.03125
 10
29.75270556631847
 20
21.88102833392938
 10
29.75270556631847
 20
20.63155112490503
 10
29.66449933622701
 20
20.21208899126995
 10
29.66449933622701
 20
18.72703079924502
  0
LEADER
  5
147F
330
1F
100
AcDbEntity
  8
LEADERS
100
AcDbLeader
  3
Standard
 76
     2
 10
29.65313211029083
 20
18.85839387533408
 30
0.0
 10
27.68874777318721
 20
18.85839387533408
 30
0.0
1001
ACAD
1000
DSTYLE
1002
{
1070
   147
1040
0.09375
1070
    77
1070
     0
1070
    41
1040
0.2344
1070
    90
1070
     1
1002
}
  0
LINE
  5
1481
330
1F
100
AcDbEntity
  8
WALL CONSTRUCTION
100
AcDbLine
 10
33.79016657374852
 20
21.12996451745563
 30
0.0
 11
30.29016657374852
 21
21.12996094334688
 31
0.0
  0
LWPOLYLINE
  5
1629
330
1F
100
AcDbEntity
  8
FLASHING
100
AcDbPolyline
 90
        6
 70
     0
 43
0.03125
 10
28.69723287823711
 20
17.55923156226037
 10
28.48504886191482
 20
17.34453454627987
 10
28.43411150152395
 20
17.37635933571897
 10
28.66200251850514
 20
17.60439852130367
 10
29.71963851704656
 20
17.60439852130367
 10
29.71963851704656
 20
20.30930277390482
  0
LINE
  5
16C2
330
1F
100
AcDbEntity
  8
WEEP HOLE
100
AcDbLine
 10
28.63256098895542
 20
17.65764204489848
 30
0.0
 11
29.13256098895542
 21
18.65764204489848
 31
0.0
  0
LINE
  5
16CB
330
1F
100
AcDbEntity
  8
WEEP HOLE
100
AcDbLine
 10
28.63256098895542
 20
18.65764204489848
 30
0.0
 11
29.13256098895542
 21
17.65764204489848
 31
0.0
  0
TEXT
  5
1787
330
1F
100
AcDbEntity
  8
NOTES
100
AcDbText
 10
26.08966177234966
 20
23.15787288497876
 30
0.0
 40
0.1163
  1
AIR/WATER RESISTIVE
  7
DETAILS
100
AcDbText
  0
TEXT
  5
1790
330
1F
100
AcDbEntity
  8
NOTES
100
AcDbText
 10
29.49975548926328
 20
19.44411609087806
 30
0.0
 40
0.116
  1
AIRFLOW / DRAINAGE CHAMBER
 50
90.0
  7
DETAILS
100
AcDbText
  0
LWPOLYLINE
  5
1A1A
330
1F
100
AcDbEntity
  8
FLASHING
100
AcDbPolyline
 90
        7
 70
     0
 43
0.0681818181818182
 10
33.62552967194063
 20
15.58323843171063
 10
32.91670506631081
 20
15.58153309381446
 10
32.91670506631081
 20
15.68007918627256
 10
33.07995796218353
 20
15.68007918627256
 10
34.02676884049863
 20
15.68007918627256
 10
34.02676884049863
 20
16.50023321970057
 10
34.02676884049863
 20
18.6834925451306
  0
TEXT
  5
1A1B
330
1F
100
AcDbEntity
  8
NOTES
100
AcDbText
 10
33.12730382847474
 20
15.43163076325294
 30
0.0
 40
0.09375
  1
3/8"
 50
359.9538266848353
  7
DETAILS
100
AcDbText
  0
TEXT
  5
1A1C
330
1F
100
AcDbEntity
  8
NOTES
100
AcDbText
 10
33.45478986255681
 20
15.77505141182621
 30
0.0
 40
0.09375
  1
"X"
  7
DETAILS
100
AcDbText
  0
TEXT
  5
1A1D
330
1F
100
AcDbEntity
  8
NOTES
100
AcDbText
 10
33.9439208571355
 20
17.60923089506191
 30
0.0
 40
0.09375
  1
3"
 50
90.0
  7
DETAILS
100
AcDbText
  0
LINE
  5
1BCD
330
1F
100
AcDbEntity
  8
SCREW
  6
HIDDEN
 48
0.2
100
AcDbLine
 10
29.79039998214348
 20
18.90328020515238
 30
0.0
 11
29.7665052098909
 21
18.95942748059426
 31
0.0
  0
LINE
  5
1BCE
330
1F
100
AcDbEntity
  8
SCREW
  6
HIDDEN
 48
0.2
100
AcDbLine
 10
29.77392426206676
 20
18.89522197116221
 30
0.0
 11
29.76650539585142
 21
18.91265461795441
 31
0.0
  0
LINE
  5
1BCF
330
1F
100
AcDbEntity
  8
SCREW
  6
HIDDEN
 48
0.2
100
AcDbLine
 10
29.84352953141018
 20
18.90328020515238
 30
0.0
 11
29.79463863431394
 21
19.01816268391582
 31
0.0
  0
LINE
  5
1BD0
330
1F
100
AcDbEntity
  8
SCREW
  6
HIDDEN
 48
0.2
100
AcDbLine
 10
29.82705381133346
 20
18.89522197116221
 30
0.0
 11
29.77778580440332
 21
19.01099057219093
 31
0.0
  0
LINE
  5
1BD1
330
1F
100
AcDbEntity
  8
SCREW
  6
HIDDEN
 48
0.2
100
AcDbLine
 10
29.8966590806769
 20
18.90328020515238
 30
0.0
 11
29.84776818358065
 21
19.01816268391582
 31
0.0
  0
LINE
  5
1BD2
330
1F
100
AcDbEntity
  8
SCREW
  6
HIDDEN
 48
0.2
100
AcDbLine
 10
29.88018336060018
 20
18.89522197116221
 30
0.0
 11
29.83091535367002
 21
19.01099057219093
 31
0.0
  0
LINE
  5
1BD3
330
1F
100
AcDbEntity
  8
SCREW
  6
HIDDEN
 48
0.2
100
AcDbLine
 10
29.94978862994361
 20
18.90328020515238
 30
0.0
 11
29.90089773284736
 21
19.01816268391582
 31
0.0
  0
LINE
  5
1BD4
330
1F
100
AcDbEntity
  8
SCREW
  6
HIDDEN
 48
0.2
100
AcDbLine
 10
29.93331290986689
 20
18.89522197116221
 30
0.0
 11
29.88404490293675
 21
19.01099057219093
 31
0.0
  0
LINE
  5
1BD5
330
1F
100
AcDbEntity
  8
SCREW
  6
HIDDEN
 48
0.2
100
AcDbLine
 10
30.00291817921032
 20
18.90328020515238
 30
0.0
 11
29.95402728211408
 21
19.01816268391582
 31
0.0
  0
LINE
  5
1BD6
330
1F
100
AcDbEntity
  8
SCREW
  6
HIDDEN
 48
0.2
100
AcDbLine
 10
29.98644245913361
 20
18.89522197116221
 30
0.0
 11
29.93717445220344
 21
19.01099057219093
 31
0.0
  0
LINE
  5
1BD7
330
1F
100
AcDbEntity
  8
SCREW
  6
HIDDEN
 48
0.2
100
AcDbLine
 10
30.05604772847703
 20
18.90328020515238
 30
0.0
 11
30.00715683138078
 21
19.01816268391582
 31
0.0
  0
LINE
  5
1BD8
330
1F
100
AcDbEntity
  8
SCREW
  6
HIDDEN
 48
0.2
100
AcDbLine
 10
30.03957200840031
 20
18.89522197116221
 30
0.0
 11
29.99030400147016
 21
19.01099057219093
 31
0.0
  0
LINE
  5
1BD9
330
1F
100
AcDbEntity
  8
SCREW
  6
HIDDEN
 48
0.2
100
AcDbLine
 10
30.10917727774373
 20
18.90328020515238
 30
0.0
 11
30.0602863806475
 21
19.01816268391582
 31
0.0
  0
LINE
  5
1BDA
330
1F
100
AcDbEntity
  8
SCREW
  6
HIDDEN
 48
0.2
100
AcDbLine
 10
30.09270155766702
 20
18.89522197116221
 30
0.0
 11
30.04343355073687
 21
19.01099057219093
 31
0.0
  0
LINE
  5
1BDB
330
1F
100
AcDbEntity
  8
SCREW
  6
HIDDEN
 48
0.2
100
AcDbLine
 10
30.16230682701046
 20
18.90328020515238
 30
0.0
 11
30.11341592991421
 21
19.01816268391582
 31
0.0
  0
LINE
  5
1BDC
330
1F
100
AcDbEntity
  8
SCREW
  6
HIDDEN
 48
0.2
100
AcDbLine
 10
30.14583110693374
 20
18.89522197116221
 30
0.0
 11
30.09656310000358
 21
19.01099057219093
 31
0.0
  0
LINE
  5
1BDD
330
1F
100
AcDbEntity
  8
SCREW
  6
HIDDEN
 48
0.2
100
AcDbLine
 10
30.21543637627716
 20
18.90328020515238
 30
0.0
 11
30.16654547918092
 21
19.01816268391582
 31
0.0
  0
LINE
  5
1BDE
330
1F
100
AcDbEntity
  8
SCREW
  6
HIDDEN
 48
0.2
100
AcDbLine
 10
30.19896065620045
 20
18.89522197116221
 30
0.0
 11
30.1496926492703
 21
19.01099057219093
 31
0.0
  0
LINE
  5
1BDF
330
1F
100
AcDbEntity
  8
SCREW
  6
HIDDEN
 48
0.2
100
AcDbLine
 10
30.26856592554388
 20
18.90328020515238
 30
0.0
 11
30.21967502844763
 21
19.01816268391582
 31
0.0
  0
LINE
  5
1BE0
330
1F
100
AcDbEntity
  8
SCREW
  6
HIDDEN
 48
0.2
100
AcDbLine
 10
30.25209020546717
 20
18.89522197116221
 30
0.0
 11
30.202822198537
 21
19.01099057219093
 31
0.0
  0
LINE
  5
1BE1
330
1F
100
AcDbEntity
  8
SCREW
  6
HIDDEN
 48
0.2
100
AcDbLine
 10
30.32169547481059
 20
18.90328020515238
 30
0.0
 11
30.27280457771435
 21
19.01816268391582
 31
0.0
  0
LINE
  5
1BE2
330
1F
100
AcDbEntity
  8
SCREW
  6
HIDDEN
 48
0.2
100
AcDbLine
 10
30.30521975473387
 20
18.89522197116221
 30
0.0
 11
30.25595174780371
 21
19.01099057219093
 31
0.0
  0
LINE
  5
1BE3
330
1F
100
AcDbEntity
  8
SCREW
  6
HIDDEN
 48
0.2
100
AcDbLine
 10
30.3748250240773
 20
18.90328020515238
 30
0.0
 11
30.32593412698105
 21
19.01816268391582
 31
0.0
  0
LINE
  5
1BE4
330
1F
100
AcDbEntity
  8
SCREW
  6
HIDDEN
 48
0.2
100
AcDbLine
 10
30.35834930400058
 20
18.89522197116221
 30
0.0
 11
30.30908129707043
 21
19.01099057219093
 31
0.0
  0
LINE
  5
1BE5
330
1F
100
AcDbEntity
  8
SCREW
  6
HIDDEN
 48
0.2
100
AcDbLine
 10
30.42795457334401
 20
18.90328020515238
 30
0.0
 11
30.37906367624776
 21
19.01816268391582
 31
0.0
  0
LINE
  5
1BE6
330
1F
100
AcDbEntity
  8
SCREW
  6
HIDDEN
 48
0.2
100
AcDbLine
 10
30.41147885326729
 20
18.89522197116221
 30
0.0
 11
30.36221084633714
 21
19.01099057219093
 31
0.0
  0
LINE
  5
1BE7
330
1F
100
AcDbEntity
  8
SCREW
  6
HIDDEN
 48
0.2
100
AcDbLine
 10
30.48108412261072
 20
18.90328020515238
 30
0.0
 11
30.43219322551447
 21
19.01816268391582
 31
0.0
  0
LINE
  5
1BE8
330
1F
100
AcDbEntity
  8
SCREW
  6
HIDDEN
 48
0.2
100
AcDbLine
 10
30.46460840253401
 20
18.89522197116221
 30
0.0
 11
30.41534039560386
 21
19.01099057219093
 31
0.0
  0
LINE
  5
1BE9
330
1F
100
AcDbEntity
  8
SCREW
  6
HIDDEN
 48
0.2
100
AcDbLine
 10
30.53421367187743
 20
18.90328020515238
 30
0.0
 11
30.48532277478119
 21
19.01816268391582
 31
0.0
  0
LINE
  5
1BEA
330
1F
100
AcDbEntity
  8
SCREW
  6
HIDDEN
 48
0.2
100
AcDbLine
 10
30.51773795180072
 20
18.89522197116221
 30
0.0
 11
30.46846994487056
 21
19.01099057219093
 31
0.0
  0
LINE
  5
1BEB
330
1F
100
AcDbEntity
  8
SCREW
  6
HIDDEN
 48
0.2
100
AcDbLine
 10
29.7665054097299
 20
18.90916389732361
 30
0.0
 11
29.76799095278742
 21
18.90916389732361
 31
0.0
  0
LINE
  5
1BEC
330
1F
100
AcDbEntity
  8
SCREW
  6
HIDDEN
 48
0.2
100
AcDbLine
 10
29.78789604079761
 20
18.90916389732361
 30
0.0
 11
29.82112050205414
 21
18.90916389732361
 31
0.0
  0
ARC
  5
1BED
330
1F
100
AcDbEntity
  8
SCREW
  6
HIDDEN
 48
0.2
100
AcDbCircle
 10
29.78216212210512
 20
18.89925108815729
 30
0.0
 40
0.0091703937631727
100
AcDbArc
 50
200.0434587331201
 51
26.06314271735307
  0
LINE
  5
1BEE
330
1F
100
AcDbEntity
  8
SCREW
  6
HIDDEN
 48
0.2
100
AcDbLine
 10
29.7768709702007
 20
19.01445020705122
 30
0.0
 11
29.7665049911304
 21
19.01445020705122
 31
0.0
  0
ARC
  5
1BEF
330
1F
100
AcDbEntity
  8
SCREW
  6
HIDDEN
 48
0.2
100
AcDbCircle
 10
29.83529167137183
 20
18.89925108815729
 30
0.0
 40
0.0091703937631727
100
AcDbArc
 50
200.0434587331201
 51
26.06314271735307
  0
ARC
  5
1BF0
330
1F
100
AcDbEntity
  8
SCREW
  6
HIDDEN
 48
0.2
100
AcDbCircle
 10
29.78602366444174
 20
19.01501968918589
 30
0.0
 40
0.0091703937631727
100
AcDbArc
 50
20.0434587308118
 51
206.0631427159179
  0
LINE
  5
1BF1
330
1F
100
AcDbEntity
  8
SCREW
  6
HIDDEN
 48
0.2
100
AcDbLine
 10
29.84102559006433
 20
18.90916389732361
 30
0.0
 11
29.87425005132084
 21
18.90916389732361
 31
0.0
  0
LINE
  5
1BF2
330
1F
100
AcDbEntity
  8
SCREW
  6
HIDDEN
 48
0.2
100
AcDbLine
 10
29.8300005194674
 20
19.01445020705122
 30
0.0
 11
29.79621856474643
 21
19.01445020705123
 31
0.0
  0
ARC
  5
1BF3
330
1F
100
AcDbEntity
  8
SCREW
  6
HIDDEN
 48
0.2
100
AcDbCircle
 10
29.88842122063854
 20
18.89925108815729
 30
0.0
 40
0.0091703937631727
100
AcDbArc
 50
200.0434587331201
 51
26.06314271735307
  0
ARC
  5
1BF4
330
1F
100
AcDbEntity
  8
SCREW
  6
HIDDEN
 48
0.2
100
AcDbCircle
 10
29.83915321370844
 20
19.01501968918589
 30
0.0
 40
0.0091703937631727
100
AcDbArc
 50
20.0434587308118
 51
206.0631427159179
  0
LINE
  5
1BF5
330
1F
100
AcDbEntity
  8
SCREW
  6
HIDDEN
 48
0.2
100
AcDbLine
 10
29.89415513933104
 20
18.90916389732361
 30
0.0
 11
29.92737960058756
 21
18.90916389732361
 31
0.0
  0
LINE
  5
1BF6
330
1F
100
AcDbEntity
  8
SCREW
  6
HIDDEN
 48
0.2
100
AcDbLine
 10
29.88313006873411
 20
19.01445020705122
 30
0.0
 11
29.84934811401315
 21
19.01445020705123
 31
0.0
  0
ARC
  5
1BF7
330
1F
100
AcDbEntity
  8
SCREW
  6
HIDDEN
 48
0.2
100
AcDbCircle
 10
29.94155076990526
 20
18.89925108815729
 30
0.0
 40
0.0091703937631727
100
AcDbArc
 50
200.0434587331201
 51
26.06314271735307
  0
ARC
  5
1BF8
330
1F
100
AcDbEntity
  8
SCREW
  6
HIDDEN
 48
0.2
100
AcDbCircle
 10
29.89228276297515
 20
19.01501968918589
 30
0.0
 40
0.0091703937631727
100
AcDbArc
 50
20.0434587308118
 51
206.0631427159179
  0
LINE
  5
1BF9
330
1F
100
AcDbEntity
  8
SCREW
  6
HIDDEN
 48
0.2
100
AcDbLine
 10
29.94728468859776
 20
18.90916389732361
 30
0.0
 11
29.98050914985427
 21
18.90916389732361
 31
0.0
  0
LINE
  5
1BFA
330
1F
100
AcDbEntity
  8
SCREW
  6
HIDDEN
 48
0.2
100
AcDbLine
 10
29.93625961800083
 20
19.01445020705122
 30
0.0
 11
29.90247766327986
 21
19.01445020705123
 31
0.0
  0
ARC
  5
1BFB
330
1F
100
AcDbEntity
  8
SCREW
  6
HIDDEN
 48
0.2
100
AcDbCircle
 10
29.99468031917196
 20
18.89925108815729
 30
0.0
 40
0.0091703937631727
100
AcDbArc
 50
200.0434587331201
 51
26.06314271735307
  0
ARC
  5
1BFC
330
1F
100
AcDbEntity
  8
SCREW
  6
HIDDEN
 48
0.2
100
AcDbCircle
 10
29.94541231224186
 20
19.01501968918589
 30
0.0
 40
0.0091703937631727
100
AcDbArc
 50
20.0434587308118
 51
206.0631427159179
  0
LINE
  5
1BFD
330
1F
100
AcDbEntity
  8
SCREW
  6
HIDDEN
 48
0.2
100
AcDbLine
 10
30.00041423786446
 20
18.90916389732361
 30
0.0
 11
30.03363869912098
 21
18.90916389732361
 31
0.0
  0
LINE
  5
1BFE
330
1F
100
AcDbEntity
  8
SCREW
  6
HIDDEN
 48
0.2
100
AcDbLine
 10
29.98938916726754
 20
19.01445020705122
 30
0.0
 11
29.95560721254656
 21
19.01445020705123
 31
0.0
  0
ARC
  5
1BFF
330
1F
100
AcDbEntity
  8
SCREW
  6
HIDDEN
 48
0.2
100
AcDbCircle
 10
30.04780986843867
 20
18.89925108815729
 30
0.0
 40
0.0091703937631727
100
AcDbArc
 50
200.0434587331201
 51
26.06314271735279
  0
ARC
  5
1C00
330
1F
100
AcDbEntity
  8
SCREW
  6
HIDDEN
 48
0.2
100
AcDbCircle
 10
29.99854186150857
 20
19.01501968918589
 30
0.0
 40
0.0091703937631727
100
AcDbArc
 50
20.0434587308118
 51
206.0631427159179
  0
LINE
  5
1C01
330
1F
100
AcDbEntity
  8
SCREW
  6
HIDDEN
 48
0.2
100
AcDbLine
 10
30.05354378713118
 20
18.90916389732361
 30
0.0
 11
30.08676824838769
 21
18.90916389732361
 31
0.0
  0
LINE
  5
1C02
330
1F
100
AcDbEntity
  8
SCREW
  6
HIDDEN
 48
0.2
100
AcDbLine
 10
30.04251871653425
 20
19.01445020705122
 30
0.0
 11
30.00873676181328
 21
19.01445020705123
 31
0.0
  0
ARC
  5
1C03
330
1F
100
AcDbEntity
  8
SCREW
  6
HIDDEN
 48
0.2
100
AcDbCircle
 10
30.10093941770538
 20
18.89925108815729
 30
0.0
 40
0.0091703937631727
100
AcDbArc
 50
200.0434587331201
 51
26.06314271735279
  0
ARC
  5
1C04
330
1F
100
AcDbEntity
  8
SCREW
  6
HIDDEN
 48
0.2
100
AcDbCircle
 10
30.05167141077529
 20
19.01501968918589
 30
0.0
 40
0.0091703937631727
100
AcDbArc
 50
20.0434587308118
 51
206.0631427159179
  0
LINE
  5
1C05
330
1F
100
AcDbEntity
  8
SCREW
  6
HIDDEN
 48
0.2
100
AcDbLine
 10
30.10667333639788
 20
18.90916389732361
 30
0.0
 11
30.13989779765441
 21
18.90916389732361
 31
0.0
  0
LINE
  5
1C06
330
1F
100
AcDbEntity
  8
SCREW
  6
HIDDEN
 48
0.2
100
AcDbLine
 10
30.09564826580096
 20
19.01445020705122
 30
0.0
 11
30.06186631107999
 21
19.01445020705123
 31
0.0
  0
ARC
  5
1C07
330
1F
100
AcDbEntity
  8
SCREW
  6
HIDDEN
 48
0.2
100
AcDbCircle
 10
30.15406896697209
 20
18.89925108815729
 30
0.0
 40
0.0091703937631727
100
AcDbArc
 50
200.0434587331201
 51
26.06314271735279
  0
ARC
  5
1C08
330
1F
100
AcDbEntity
  8
SCREW
  6
HIDDEN
 48
0.2
100
AcDbCircle
 10
30.10480096004199
 20
19.01501968918589
 30
0.0
 40
0.0091703937631727
100
AcDbArc
 50
20.0434587308118
 51
206.0631427159179
  0
LINE
  5
1C09
330
1F
100
AcDbEntity
  8
SCREW
  6
HIDDEN
 48
0.2
100
AcDbLine
 10
30.1598028856646
 20
18.90916389732361
 30
0.0
 11
30.19302734692112
 21
18.90916389732361
 31
0.0
  0
LINE
  5
1C0A
330
1F
100
AcDbEntity
  8
SCREW
  6
HIDDEN
 48
0.2
100
AcDbLine
 10
30.14877781506767
 20
19.01445020705122
 30
0.0
 11
30.1149958603467
 21
19.01445020705123
 31
0.0
  0
ARC
  5
1C0B
330
1F
100
AcDbEntity
  8
SCREW
  6
HIDDEN
 48
0.2
100
AcDbCircle
 10
30.20719851623881
 20
18.89925108815729
 30
0.0
 40
0.0091703937631727
100
AcDbArc
 50
200.0434587331201
 51
26.06314271735279
  0
ARC
  5
1C0C
330
1F
100
AcDbEntity
  8
SCREW
  6
HIDDEN
 48
0.2
100
AcDbCircle
 10
30.15793050930871
 20
19.01501968918589
 30
0.0
 40
0.0091703937631727
100
AcDbArc
 50
20.0434587308118
 51
206.0631427159179
  0
LINE
  5
1C0D
330
1F
100
AcDbEntity
  8
SCREW
  6
HIDDEN
 48
0.2
100
AcDbLine
 10
30.21293243493131
 20
18.90916389732361
 30
0.0
 11
30.24615689618782
 21
18.90916389732361
 31
0.0
  0
LINE
  5
1C0E
330
1F
100
AcDbEntity
  8
SCREW
  6
HIDDEN
 48
0.2
100
AcDbLine
 10
30.20190736433438
 20
19.01445020705122
 30
0.0
 11
30.16812540961341
 21
19.01445020705123
 31
0.0
  0
ARC
  5
1C0F
330
1F
100
AcDbEntity
  8
SCREW
  6
HIDDEN
 48
0.2
100
AcDbCircle
 10
30.26032806550551
 20
18.89925108815729
 30
0.0
 40
0.0091703937631727
100
AcDbArc
 50
200.0434587331201
 51
26.06314271735279
  0
ARC
  5
1C10
330
1F
100
AcDbEntity
  8
SCREW
  6
HIDDEN
 48
0.2
100
AcDbCircle
 10
30.21106005857542
 20
19.01501968918589
 30
0.0
 40
0.0091703937631727
100
AcDbArc
 50
20.0434587308118
 51
206.0631427159179
  0
LINE
  5
1C11
330
1F
100
AcDbEntity
  8
SCREW
  6
HIDDEN
 48
0.2
100
AcDbLine
 10
30.26606198419802
 20
18.90916389732361
 30
0.0
 11
30.29928644545454
 21
18.90916389732361
 31
0.0
  0
LINE
  5
1C12
330
1F
100
AcDbEntity
  8
SCREW
  6
HIDDEN
 48
0.2
100
AcDbLine
 10
30.2550369136011
 20
19.01445020705122
 30
0.0
 11
30.22125495888012
 21
19.01445020705123
 31
0.0
  0
ARC
  5
1C13
330
1F
100
AcDbEntity
  8
SCREW
  6
HIDDEN
 48
0.2
100
AcDbCircle
 10
30.31345761477223
 20
18.89925108815729
 30
0.0
 40
0.0091703937631727
100
AcDbArc
 50
200.0434587331201
 51
26.06314271735279
  0
ARC
  5
1C14
330
1F
100
AcDbEntity
  8
SCREW
  6
HIDDEN
 48
0.2
100
AcDbCircle
 10
30.26418960784214
 20
19.01501968918589
 30
0.0
 40
0.0091703937631727
100
AcDbArc
 50
20.0434587308118
 51
206.0631427159179
  0
LINE
  5
1C15
330
1F
100
AcDbEntity
  8
SCREW
  6
HIDDEN
 48
0.2
100
AcDbLine
 10
30.31919153346474
 20
18.90916389732361
 30
0.0
 11
30.35241599472125
 21
18.90916389732361
 31
0.0
  0
LINE
  5
1C16
330
1F
100
AcDbEntity
  8
SCREW
  6
HIDDEN
 48
0.2
100
AcDbLine
 10
30.30816646286781
 20
19.01445020705122
 30
0.0
 11
30.27438450814683
 21
19.01445020705123
 31
0.0
  0
ARC
  5
1C17
330
1F
100
AcDbEntity
  8
SCREW
  6
HIDDEN
 48
0.2
100
AcDbCircle
 10
30.36658716403894
 20
18.89925108815729
 30
0.0
 40
0.0091703937631727
100
AcDbArc
 50
200.0434587331201
 51
26.06314271735279
  0
ARC
  5
1C18
330
1F
100
AcDbEntity
  8
SCREW
  6
HIDDEN
 48
0.2
100
AcDbCircle
 10
30.31731915710885
 20
19.01501968918589
 30
0.0
 40
0.0091703937631727
100
AcDbArc
 50
20.0434587308118
 51
206.0631427159179
  0
LINE
  5
1C19
330
1F
100
AcDbEntity
  8
SCREW
  6
HIDDEN
 48
0.2
100
AcDbLine
 10
30.37232108273144
 20
18.90916389732361
 30
0.0
 11
30.40554554398796
 21
18.90916389732361
 31
0.0
  0
LINE
  5
1C1A
330
1F
100
AcDbEntity
  8
SCREW
  6
HIDDEN
 48
0.2
100
AcDbLine
 10
30.36129601213451
 20
19.01445020705122
 30
0.0
 11
30.32751405741354
 21
19.01445020705123
 31
0.0
  0
ARC
  5
1C1B
330
1F
100
AcDbEntity
  8
SCREW
  6
HIDDEN
 48
0.2
100
AcDbCircle
 10
30.41971671330566
 20
18.89925108815729
 30
0.0
 40
0.0091703937631727
100
AcDbArc
 50
200.0434587331201
 51
26.06314271735279
  0
ARC
  5
1C1C
330
1F
100
AcDbEntity
  8
SCREW
  6
HIDDEN
 48
0.2
100
AcDbCircle
 10
30.37044870637555
 20
19.01501968918589
 30
0.0
 40
0.0091703937631727
100
AcDbArc
 50
20.0434587308118
 51
206.0631427159179
  0
LINE
  5
1C1D
330
1F
100
AcDbEntity
  8
SCREW
  6
HIDDEN
 48
0.2
100
AcDbLine
 10
30.42545063199816
 20
18.90916389732361
 30
0.0
 11
30.45867509325468
 21
18.90916389732361
 31
0.0
  0
LINE
  5
1C1E
330
1F
100
AcDbEntity
  8
SCREW
  6
HIDDEN
 48
0.2
100
AcDbLine
 10
30.41442556140123
 20
19.01445020705122
 30
0.0
 11
30.38064360668026
 21
19.01445020705123
 31
0.0
  0
ARC
  5
1C1F
330
1F
100
AcDbEntity
  8
SCREW
  6
HIDDEN
 48
0.2
100
AcDbCircle
 10
30.47284626257237
 20
18.89925108815729
 30
0.0
 40
0.0091703937631727
100
AcDbArc
 50
200.0434587331201
 51
26.06314271735279
  0
ARC
  5
1C20
330
1F
100
AcDbEntity
  8
SCREW
  6
HIDDEN
 48
0.2
100
AcDbCircle
 10
30.42357825564227
 20
19.01501968918589
 30
0.0
 40
0.0091703937631727
100
AcDbArc
 50
20.0434587308118
 51
206.0631427159179
  0
LINE
  5
1C21
330
1F
100
AcDbEntity
  8
SCREW
  6
HIDDEN
 48
0.2
100
AcDbLine
 10
30.47858018126487
 20
18.90916389732361
 30
0.0
 11
30.51180464252139
 21
18.90916389732361
 31
0.0
  0
LINE
  5
1C22
330
1F
100
AcDbEntity
  8
SCREW
  6
HIDDEN
 48
0.2
100
AcDbLine
 10
30.46755511066794
 20
19.01445020705122
 30
0.0
 11
30.43377315594697
 21
19.01445020705123
 31
0.0
  0
ARC
  5
1C23
330
1F
100
AcDbEntity
  8
SCREW
  6
HIDDEN
 48
0.2
100
AcDbCircle
 10
30.52597581183907
 20
18.89925108815729
 30
0.0
 40
0.0091703937631727
100
AcDbArc
 50
200.0434587331201
 51
26.06314271735279
  0
ARC
  5
1C24
330
1F
100
AcDbEntity
  8
SCREW
  6
HIDDEN
 48
0.2
100
AcDbCircle
 10
30.47670780490898
 20
19.01501968918589
 30
0.0
 40
0.0091703937631727
100
AcDbArc
 50
20.0434587308118
 51
206.0631427159179
  0
LINE
  5
1C25
330
1F
100
AcDbEntity
  8
SCREW
  6
HIDDEN
 48
0.2
100
AcDbLine
 10
29.69723280394707
 20
18.83702169674613
 30
0.0
 11
29.69723280394707
 21
19.07667959846235
 31
0.0
  0
LINE
  5
1C26
330
1F
100
AcDbEntity
  8
SCREW
  6
HIDDEN
 48
0.2
100
AcDbLine
 10
29.69723280394707
 20
18.83702169674613
 30
0.0
 11
29.71963851704656
 21
18.83702169674613
 31
0.0
  0
ARC
  5
1C27
330
1F
100
AcDbEntity
  8
SCREW
  6
HIDDEN
 48
0.2
100
AcDbCircle
 10
29.80102724274598
 20
18.95685064760424
 30
0.0
 40
0.1585315835703886
100
AcDbArc
 50
130.8987284874719
 51
229.1012715124085
  0
LINE
  5
1C28
330
1F
100
AcDbEntity
  8
SCREW
  6
HIDDEN
 48
0.2
100
AcDbLine
 10
29.69723280394707
 20
19.07667959846235
 30
0.0
 11
29.71963851704656
 21
19.07667959846235
 31
0.0
  0
ARC
  5
1C29
330
1F
100
AcDbEntity
  8
SCREW
  6
HIDDEN
 48
0.2
100
AcDbCircle
 10
30.63461557604265
 20
18.95797910694802
 30
0.0
 40
0.0120950817970739
100
AcDbArc
 50
0.0
 51
90.0000000000171
  0
ARC
  5
1C2A
330
1F
100
AcDbEntity
  8
SCREW
  6
HIDDEN
 48
0.2
100
AcDbCircle
 10
30.71832441457997
 20
18.54849058909614
 30
0.0
 40
0.4061141621129565
100
AcDbArc
 50
101.8951553356812
 51
117.0150992582615
  0
ARC
  5
1C2B
330
1F
100
AcDbEntity
  8
SCREW
  6
HIDDEN
 48
0.2
100
AcDbCircle
 10
30.63461557604265
 20
18.95797910694802
 30
0.0
 40
0.0120950817970739
100
AcDbArc
 50
269.9999999999829
 51
0.0
  0
ARC
  5
1C2C
330
1F
100
AcDbEntity
  8
SCREW
  6
HIDDEN
 48
0.2
100
AcDbCircle
 10
30.71832441457997
 20
19.36746762479989
 30
0.0
 40
0.4061141621129565
100
AcDbArc
 50
240.0518963641911
 51
258.1048446643184
  0
LINE
  5
1C2D
330
1F
100
AcDbEntity
  8
SCREW
  6
HIDDEN
 48
0.2
100
AcDbLine
 10
30.51558597811238
 20
19.01557866639496
 30
0.0
 11
30.48677477745909
 21
19.01557866639497
 31
0.0
  0
LINE
  5
1C2E
330
1F
100
AcDbEntity
  8
SCREW
  6
HIDDEN
 48
0.2
100
AcDbLine
 10
30.531581802777
 20
18.91029235666736
 30
0.0
 11
30.53385709050591
 21
18.91029235666737
 31
0.0
  0
TEXT
  5
1C38
330
1F
100
AcDbEntity
  8
NOTES
100
AcDbText
 10
31.62990340101818
 20
15.1396777778572
 30
0.0
 40
0.116
  1
PREFERRED
  7
DETAILS
100
AcDbText
  0
TEXT
  5
1C39
330
1F
100
AcDbEntity
  8
NOTES
100
AcDbText
 10
33.10301916596889
 20
15.13554106409435
 30
0.0
 40
0.116
  1
OPTIONAL
  7
DETAILS
100
AcDbText
  0
LINE
  5
1C73
330
1F
100
AcDbEntity
  8
NOTES
100
AcDbLine
 10
29.81755644777535
 20
17.60457867475052
 30
0.0
 11
30.2907682022856
 21
17.60439852130367
 31
0.0
  0
LINE
  5
1C74
330
1F
100
AcDbEntity
  8
NOTES
100
AcDbLine
 10
30.22510746916893
 20
17.53924858407023
 30
0.0
 11
30.22510746916893
 21
18.48159329263122
 31
0.0
  0
INSERT
  5
1C75
330
1F
100
AcDbEntity
  8
NOTES
100
AcDbBlockReference
  2
_ArchTick
 10
30.22510746916893
 20
18.40764204489847
 30
0.0
 41
0.0625
 42
0.0625
 43
0.0625
 50
90.0
  0
TEXT
  5
1C76
330
1F
100
AcDbEntity
  8
NOTES
100
AcDbText
 10
30.35084494327332
 20
17.73154568957374
 30
0.0
 40
0.09375
  1
(19 mm)
 50
90.0
  7
DETAILS
100
AcDbText
  0
TEXT
  5
1C77
330
1F
100
AcDbEntity
  8
NOTES
100
AcDbText
 10
30.18495047987463
 20
17.73452648624268
 30
0.0
 40
0.09375
  1
3/4" MIN.
 50
90.0
  7
DETAILS
100
AcDbText
  0
INSERT
  5
1C78
330
1F
100
AcDbEntity
  8
NOTES
100
AcDbBlockReference
  2
_ArchTick
 10
30.22510746916893
 20
17.60439852130367
 30
0.0
 41
0.0625
 42
0.0625
 43
0.0625
 50
270.0
  0
LINE
  5
1C79
330
1F
100
AcDbEntity
  8
NOTES
100
AcDbLine
 10
29.83775486748658
 20
18.40764204489848
 30
0.0
 11
30.2907682022856
 21
18.40764204489848
 31
0.0
  0
LEADER
  5
1D01
330
1F
100
AcDbEntity
  8
LEADERS
100
AcDbLeader
  3
Standard
 76
     3
 10
28.52361777314263
 20
17.46592380190559
 30
0.0
 10
27.72998807003495
 20
17.62856104786306
 30
0.0
 10
27.4918513208244
 20
17.62856104786306
 30
0.0
1001
ACAD
1000
DSTYLE
1002
{
1070
   147
1040
0.09375
1070
    77
1070
     0
1070
    41
1040
0.2344
1070
    90
1070
     1
1002
}
  0
TEXT
  5
1D44
330
1F
100
AcDbEntity
  8
NOTES
100
AcDbText
 10
26.08966177234966
 20
18.80889897365218
 30
0.0
 40
0.1163
  1
TRANSITION TAPE
  7
DETAILS
100
AcDbText
  0
TEXT
  5
1D46
330
1F
100
AcDbEntity
  8
NOTES
100
AcDbText
 10
26.08966177234966
 20
18.14359262095858
 30
0.0
 40
0.1163
  1
MIN. 1" WEEP HOLES, 
  7
DETAILS
100
AcDbText
  0
TEXT
  5
1D47
330
1F
100
AcDbEntity
  8
NOTES
100
AcDbText
 10
26.08966177234966
 20
17.98862395359688
 30
0.0
 40
0.1163
  1
MAX 24" O.C. 
  7
DETAILS
100
AcDbText
  0
TEXT
  5
1D48
330
1F
100
AcDbEntity
  8
NOTES
100
AcDbText
 10
26.08966177234966
 20
18.9860658958423
 30
0.0
 40
0.1163
  1
FLASHING MEMBRANE/
  7
DETAILS
100
AcDbText
  0
LEADER
  5
1E21
330
1F
100
AcDbEntity
  8
LEADERS
100
AcDbLeader
  3
Standard
 76
     3
 10
28.4024994802943
 20
15.70073293027535
 30
0.0
 10
27.85100015850876
 20
16.16699360360134
 30
0.0
 10
27.6128634092982
 20
16.16699360360134
 30
0.0
1001
ACAD
1000
DSTYLE
1002
{
1070
   147
1040
0.09375
1070
    77
1070
     0
1070
    41
1040
0.2344
1070
    90
1070
     1
1002
}
  0
TEXT
  5
1E85
330
1F
100
AcDbEntity
  8
NOTES
100
AcDbText
 10
30.49800167618207
 20
18.29361627737894
 30
0.0
 40
0.093
  1
3/4" GAP PROVIDED
  7
DETAILS
100
AcDbText
  0
TEXT
  5
1E86
330
1F
100
AcDbEntity
  8
NOTES
100
AcDbText
 10
30.49800167618207
 20
18.15218099547226
 30
0.0
 40
0.093
  1
BY TEMPORARY 
  7
DETAILS
100
AcDbText
  0
TEXT
  5
1E87
330
1F
100
AcDbEntity
  8
NOTES
100
AcDbText
 10
30.49800167618207
 20
18.00519924206399
 30
0.0
 40
0.093
  1
SPACER 
  7
DETAILS
100
AcDbText
  0
ARC
  5
1EEE
330
1F
100
AcDbEntity
  8
SCREW
  6
HIDDEN
 48
0.2
100
AcDbCircle
 10
29.5721222538282
 20
22.64334254956339
 30
0.0
 40
0.0122271916842302
100
AcDbArc
 50
274.5655146956506
 51
26.06314271735297
  0
VIEWPORT
  5
290
102
{ACAD_XDICTIONARY
360
291
102
}
330
58
100
AcDbEntity
 67
     1
  8
0
100
AcDbViewport
 10
4.060695416371467
 20
5.313786209262461
 30
0.0
 40
21.35884691959964
 41
10.05866041692663
 68
     1
 69
     1
 12
4.060695416371467
 22
5.313786209262461
 13
0.0
 23
0.0
 14
0.5
 24
0.5
 15
0.5
 25
0.5
 16
0.0
 26
0.0
 36
1.0
 17
0.0
 27
0.0
 37
0.0
 42
50.0
 43
0.0
 44
0.0
 45
10.05866041692663
 50
0.0
 51
0.0
 72
  1000
 90
   819232
  1

281
     0
 71
     1
 74
     0
110
0.0
120
0.0
130
0.0
111
1.0
121
0.0
131
0.0
112
0.0
122
1.0
132
0.0
 79
     0
146
0.0
170
     0
 61
     5
348
9F
292
     1
282
     1
141
0.0
142
0.0
 63
   250
421
  3355443
  0
MTEXT
  5
412
330
58
100
AcDbEntity
 67
     1
  8
0
100
AcDbMText
 10
1.454878486923803
 20
0.4350098133260048
 30
0.0
 40
0.0781
 41
6.816532178661475
 46
0.0
 71
     1
 72
     5
  1
GLEN-GERY 423 S. POTTSVILLE PIKE SHOEMAKERSVILLE, PA 19555 800-854-4780, 610-562-3418 WWW.GLENGERY.COM
 73
     1
 44
1.0
101
Embedded Object
 70
     1
 10
1.0
 20
0.0
 30
0.0
 11
1.454878486923803
 21
0.4350098133260048
 31
0.0
 40
6.816532178661475
 41
0.0
 42
6.292483969986357
 43
0.0949346521145976
 71
     2
 72
     1
 44
6.816532178661475
 45
1.0
 73
     0
 74
     0
 46
0.0
  0
LINE
  5
41F
330
58
100
AcDbEntity
 67
     1
  8
title block
100
AcDbLine
 10
0.3093712765375702
 20
1.039359969887585
 30
0.0
 11
7.808747164444637
 21
1.039359969887585
 31
0.0
  0
LINE
  5
420
330
58
100
AcDbEntity
 67
     1
  8
title block
100
AcDbLine
 10
7.808747164444637
 20
1.101859969887585
 30
0.0
 11
0.3093692292309651
 21
1.101859969887587
 31
0.0
  0
TEXT
  5
59C
330
58
100
AcDbEntity
 67
     1
  8
scale
 62
     0
100
AcDbText
 10
0.3420461485385483
 20
0.348480956890576
 30
0.0
 40
0.0781
  1
SCALE : 
  7
DETAILS
100
AcDbText
1001
ACDBBLOCKREPETAG
1070
     1
1071
       17
1005
0
  0
TEXT
  5
5A6
330
58
100
AcDbEntity
 67
     1
  8
TITLE
100
AcDbText
 10
7.183084698097726
 20
1.150765642644953
 30
0.0
 40
0.165
  1
ELITE
  7
DETAILS
100
AcDbText
  0
TEXT
  5
5B8
330
58
100
AcDbEntity
 67
     1
  8
NOTES
100
AcDbText
 10
0.3856929828956623
 20
0.8428754443990484
 30
0.0
 40
0.09375
  1
NOTE: FASTENER PENETRATION - WOOD STUD- 1 1/4" MIN., STEEL STUD - 3 THREADS MIN., CONCRETE - 1" 
  7
DETAILS
100
AcDbText
  0
TEXT
  5
5CF
330
58
100
AcDbEntity
 67
     1
  8
TITLE
100
AcDbText
 10
0.4104990075006825
 20
1.172610078203875
 30
0.0
 40
0.165
  1
WALL BASE
  7
DETAILS
100
AcDbText
  0
VIEWPORT
  5
9A0
102
{ACAD_XDICTIONARY
360
9A1
102
}
330
58
100
AcDbEntity
 67
     1
  8
viewports
100
AcDbViewport
 10
4.059102840112799
 20
5.992626912785659
 30
0.0
 40
7.499407032406322
 41
8.630907639953804
 68
     2
 69
     2
 12
30.12760786192301
 22
20.28342459199143
 13
0.0
 23
0.0
 14
0.5
 24
0.5
 15
0.5
 25
0.5
 16
0.0
 26
0.0
 36
1.0
 17
0.0
 27
0.0
 37
0.0
 42
50.0
 43
0.0
 44
0.0
 45
10.78863459157096
 50
0.0
 51
0.0
 72
  1000
 90
   819296
  1

281
     0
 71
     1
 74
     0
110
0.0
120
0.0
130
0.0
111
1.0
121
0.0
131
0.0
112
0.0
122
1.0
132
0.0
 79
     0
146
0.0
170
     0
 61
     5
348
9F
292
     1
282
     1
141
0.0
142
0.0
 63
   250
421
  3355443
1001
GENIUS_GENODEF_13
1002
{
1000
HIER
1070
     0
1002
}
1002
{
1000
MANEDIT
1070
     0
1002
}
1002
{
1000
NOSEL
1070
     0
1002
}
1002
{
1000
BEHIND
1070
     0
1002
}
1002
{
1000
OTHER
1070
     0
1002
}
1002
{
1000
REACTOR
1002
}
1001
GENIUS_GENOBJ-N-SDF_13
1002
{
1000
OWNER
1000
GEN
1002
}
1001
GENIUS_GENSCREG_15
1000
PF
1040
1.0
1000
DF
1040
1.0
1000
MIN
1011
0.3093993239096386
1021
1.677173092808757
1031
0.0
1000
MAX
1011
7.808806356315961
1021
10.30808073276256
1031
0.0
1000
FLAGS
1070
     4
  0
LINE
  5
A35
330
58
100
AcDbEntity
 67
     1
  8
0
100
AcDbLine
 10
0.3093988565626911
 20
0.4533015212193235
 30
0.0
 11
7.808774086590014
 21
0.4533015212193235
 31
0.0
  0
MTEXT
  5
E3B
102
{ACAD_XDICTIONARY
360
E3C
102
}
330
58
100
AcDbEntity
 67
     1
  8
scale
100
AcDbMText
 10
0.7915178468915798
 20
0.4210250013182808
 30
0.0
 40
0.0781
 41
0.6021203030946581
 46
0.0
 71
     1
 72
     5
  1
1"-1.25"
 73
     1
 44
1.0
101
Embedded Object
 70
     1
 10
1.0
 20
0.0
 30
0.0
 11
0.7915178468915798
 21
0.4210250013182808
 31
0.0
 40
0.6021203030946581
 41
0.0
 42
0.3698296043656208
 43
0.0797515006821283
 71
     2
 72
     1
 44
0.6021203030946581
 45
1.0
 73
     0
 74
     0
 46
0.0
  0
IMAGE
  5
2006
330
58
100
AcDbEntity
 67
     1
  8
logos
160
               140
310
8C000000010000008400000006000000050000008F2B66D232CDD33F7949A844A90723400000000000000000902B66D232CDD33F607CFFC1BC9D2440000000000000000068F452D500700640607CFFC1BC9D2440000000000000000068F452D5007006407949A844A907234000000000000000008F2B66D232CDD33F7949A8
310
44A90723400000000000000000
100
AcDbRasterImage
 90
        0
 10
0.3093993239096386
 20
9.514963288824889
 30
0.0
 11
0.0013174708371058
 21
0.0
 31
0.0
 12
0.0
 22
0.0013174708371058
 32
0.0
 13
1894.0
 23
602.0
340
2004
 70
     7
280
     0
281
    50
282
    50
283
     0
290
     0
360
2005
 71
     1
 91
        2
 14
-0.5
 24
-0.5
 14
1893.5
 24
601.5
  0
ENDSEC
  0
SECTION
  2
OBJECTS
  0
DICTIONARY
  5
C
330
0
100
AcDbDictionary
281
     1
  3
ACAD_BGPLOT_KEY
350
A93
  3
ACAD_CIP_PREVIOUS_PRODUCT_INFO
350
1A5
  3
ACAD_COLOR
350
73
  3
ACAD_DETAILVIEWSTYLE
350
1AB
  3
ACAD_FIELDLIST
350
278
  3
ACAD_GROUP
350
D
  3
ACAD_IMAGE_DICT
350
5A7
  3
ACAD_IMAGE_VARS
350
5A8
  3
ACAD_LAYOUT
350
1A
  3
ACAD_MATERIAL
350
72
  3
ACAD_MLEADERSTYLE
350
D7
  3
ACAD_MLINESTYLE
350
17
  3
ACAD_PLOTSETTINGS
350
19
  3
ACAD_PLOTSTYLENAME
350
E
  3
ACAD_RENDER_RAPIDRT_SETTINGS
350
9A3
  3
ACAD_SCALELIST
350
B6
  3
ACAD_SECTIONVIEWSTYLE
350
1A8
  3
ACAD_TABLESTYLE
350
86
  3
ACAD_VISUALSTYLE
350
99
  3
ACDB_RECOMPOSE_DATA
350
202E
  3
AcDbVariableDictionary
350
66
  3
ACGREF_MASTER
350
21E
  3
ACGREFACAD_MASTER
350
222
  3
AcmDictionary
350
23A
  3
ACME_COMMAND_HISTORY
350
216
  3
ACME_SCOPE_NAME
350
215
  3
ACMESTATEMGR
350
219
  3
AcmeSysVarManager
350
217
  3
AcmSystemVariableManager
350
227
  3
AMG
350
20E
  3
AMGSNAPSETTINGS
350
406
  3
AMI_MASTER
350
223
  3
AUTOCAD_ASSEMBLIES_PROJECT
350
230
  3
Designer_Assemblies_SysVars
350
22A
  3
GREFAM_MODULE
350
226
  3
StructToggleButtonState
350
3DA
  0
DICTIONARY
  5
18E
330
2
100
AcDbDictionary
280
     1
281
     1
  3
ACAD_LAYERSTATES
360
18F
  0
DICTIONARY
  5
E6
330
10
100
AcDbDictionary
280
     1
281
     1
  0
DICTIONARY
  5
15D
330
1F
100
AcDbDictionary
280
     1
281
     1
  3
ACAD_SORTENTS
360
973
  0
DICTIONARY
  5
AB7
330
58
100
AcDbDictionary
280
     1
281
     1
  3
ACAD_SORTENTS
360
AB8
  0
DICTIONARY
  5
163C
330
163A
100
AcDbDictionary
280
     1
281
     1
  3
ACAD_SORTENTS
360
163D
  0
DICTIONARY
  5
16B6
330
16B4
100
AcDbDictionary
280
     1
281
     1
  3
ACAD_SORTENTS
360
16B7
  0
DICTIONARY
  5
1E79
330
1E75
100
AcDbDictionary
280
     1
281
     1
  3
ACAD_SORTENTS
360
1E7A
  0
DICTIONARY
  5
291
330
290
100
AcDbDictionary
280
     1
281
     1
  3
ASDK_XREC_ANNOTATION_SCALE_INFO
360
292
  0
DICTIONARY
  5
9A1
330
9A0
100
AcDbDictionary
280
     1
281
     1
  3
ASDK_XREC_ANNOTATION_SCALE_INFO
360
9A2
  0
DICTIONARY
  5
E3C
330
E3B
100
AcDbDictionary
280
     1
281
     1
  3
ACAD_FIELD
360
E3D
  0
IMAGEDEF_REACTOR
  5
2005
330
2006
100
AcDbRasterImageDefReactor
 90
        2
330
2006
  0
DICTIONARY
  5
A93
102
{ACAD_REACTORS
330
C
102
}
330
C
100
AcDbDictionary
280
     1
281
     1
  0
XRECORD
  5
1A5
102
{ACAD_REACTORS
330
C
102
}
330
C
100
AcDbXrecord
280
     1
300
ACD
300
2020
300

  0
DICTIONARY
  5
73
102
{ACAD_REACTORS
330
C
102
}
330
C
100
AcDbDictionary
281
     1
  0
DICTIONARY
  5
1AB
102
{ACAD_REACTORS
330
C
102
}
330
C
100
AcDbDictionary
281
     1
  3
ASME Y14.35 - 1987
350
26D
  3
Imperial24
350
1AC
  0
FIELDLIST
  5
278
102
{ACAD_REACTORS
330
C
102
}
330
C
100
AcDbIdSet
 90
        6
330
E3E
330
E74
330
276
330
277
330
279
330
27A
100
AcDbFieldList
  0
DICTIONARY
  5
D
102
{ACAD_REACTORS
330
C
102
}
330
C
100
AcDbDictionary
281
     1
  0
DICTIONARY
  5
5A7
102
{ACAD_REACTORS
330
C
102
}
330
C
100
AcDbDictionary
281
     1
  3
GG_logo_Horiz_K_1
350
2004
  0
RASTERVARIABLES
  5
5A8
102
{ACAD_REACTORS
330
C
102
}
330
C
100
AcDbRasterVariables
 90
        0
 70
     0
 71
     1
 72
     5
  0
DICTIONARY
  5
1A
102
{ACAD_REACTORS
330
C
102
}
330
C
100
AcDbDictionary
281
     1
  3
Layout1
350
59
  3
Model
350
22
  0
DICTIONARY
  5
72
102
{ACAD_REACTORS
330
C
102
}
330
C
100
AcDbDictionary
281
     1
  3
ByBlock
350
97
  3
ByLayer
350
96
  3
Global
350
98
  0
DICTIONARY
  5
D7
102
{ACAD_REACTORS
330
C
102
}
330
C
100
AcDbDictionary
281
     1
  3
Annotative
350
E5
  3
Standard
350
D8
  0
DICTIONARY
  5
17
102
{ACAD_REACTORS
330
C
102
}
330
C
100
AcDbDictionary
281
     1
  3
Standard
350
18
  0
DICTIONARY
  5
19
102
{ACAD_REACTORS
330
C
102
}
330
C
100
AcDbDictionary
281
     1
  0
ACDBDICTIONARYWDFLT
  5
E
102
{ACAD_REACTORS
330
C
102
}
330
C
100
AcDbDictionary
281
     1
  3
Normal
350
F
100
AcDbDictionaryWithDefault
340
F
  0
DICTIONARY
  5
9A3
102
{ACAD_REACTORS
330
C
102
}
330
C
100
AcDbDictionary
281
     1
  3
Coffee-Break Quality
350
9A7
  3
High
350
9A6
  3
Low
350
9A4
  3
Lunch Quality
350
9A8
  3
Medium
350
9A5
  3
Overnight Quality
350
9A9
  0
DICTIONARY
  5
B6
102
{ACAD_REACTORS
330
C
102
}
330
C
100
AcDbDictionary
281
     1
  3
A0
350
B7
  3
A1
350
14DC
  3
A2
350
14ED
  3
A3
350
14EE
  3
A4
350
14EF
  3
A5
350
14F0
  3
A6
350
14F1
  3
A7
350
14F2
  3
A8
350
14F3
  3
A9
350
14F4
  3
B0
350
14F5
  3
B1
350
14F6
  3
B2
350
14F7
  3
B3
350
14F8
  3
B4
350
14F9
  3
B5
350
14FA
  3
B6
350
14FB
  3
B7
350
14FC
  3
B8
350
14FD
  3
B9
350
14FE
  0
DICTIONARY
  5
1A8
102
{ACAD_REACTORS
330
C
102
}
330
C
100
AcDbDictionary
281
     1
  3
ASME Y14.3 - 2003
350
273
  3
Imperial24
350
1AA
  0
DICTIONARY
  5
86
102
{ACAD_REACTORS
330
C
102
}
330
C
100
AcDbDictionary
281
     1
  3
Standard
350
87
  0
DICTIONARY
  5
99
102
{ACAD_REACTORS
330
C
102
}
330
C
100
AcDbDictionary
281
     1
  3
2dWireframe
350
9F
  3
Basic
350
9E
  3
Brighten
350
A5
  3
ColorChange
350
A9
  3
Conceptual
350
A2
  3
Dim
350
A4
  3
EdgeColorOff
350
175
  3
Facepattern
350
A8
  3
Flat
350
9A
  3
FlatWithEdges
350
9B
  3
Gouraud
350
9C
  3
GouraudWithEdges
350
9D
  3
Hidden
350
A1
  3
JitterOff
350
173
  3
Linepattern
350
A7
  3
OverhangOff
350
174
  3
Realistic
350
A3
  3
Shaded
350
182
  3
Shaded with edges
350
181
  3
Shades of Gray
350
17E
  3
Sketchy
350
17F
  3
Thicken
350
A6
  3
Wireframe
350
A0
  3
X-Ray
350
180
  0
XRECORD
  5
202E
102
{ACAD_REACTORS
330
C
102
}
330
C
100
AcDbXrecord
280
     1
 90
        1
330
87
  0
DICTIONARY
  5
66
102
{ACAD_REACTORS
330
C
102
}
330
C
100
AcDbDictionary
281
     1
  3
CANNOSCALE
350
F0
  3
CMLEADERSTYLE
350
EF
  3
CTABLESTYLE
350
89
  3
CVIEWDETAILSTYLE
350
1B7
  3
CVIEWSECTIONSTYLE
350
1B8
  3
DIMASSOC
350
67
  3
FIELDEVAL
350
A9C
  3
HIDETEXT
350
6B
  3
HPCOLOR
350
15C6
  3
HPLAYER
350
15C4
  3
HPTRANSPARENCY
350
15C5
  3
LAYEREVAL
350
14D
  3
LAYERNOTIFY
350
14E
  0
ACAD_PROXY_OBJECT
  5
21E
102
{ACAD_REACTORS
330
C
102
}
330
C
100
AcDbProxyObject
 90
      499
 91
      525
 71
    33
 97
      157
 70
     0
162
                 0
161
                34
310
0C000042CC
 94
        0
  0
ACAD_PROXY_OBJECT
  5
222
102
{ACAD_REACTORS
330
C
102
}
330
C
100
AcDbProxyObject
 90
      499
 91
      528
 71
    33
 97
      157
 70
     0
162
                 0
161
               114
310
04000041C08000000000000000000C
 94
        0
  0
DICTIONARY
  5
23A
102
{ACAD_REACTORS
330
C
102
}
330
C
100
AcDbDictionary
281
     1
  3
AcmBOMDATA
350
23B
  3
AcmStdDictionary
350
23C
  0
ACAD_PROXY_OBJECT
  5
216
102
{ACAD_REACTORS
330
C
102
}
330
C
100
AcDbProxyObject
 90
      499
 91
      520
 71
    33
 97
      157
 70
     0
162
              8774
311
41544014C01040158011401314D005300470020002D0020005000500041003A002000200020006400650073006B0074006F0070002E006100720078002000460069006C006500560065007200730069006F006E003A002000320033002E0030002E00340036002E0030002E0030004115401380110013C010455004E004400
311
4F0041544014C01040158011401314D005300470020002D0020005000500041003A002000200020006400650073006B0074006F0070002E006100720078002000460069006C006500560065007200730069006F006E003A002000320033002E0030002E00340036002E0030002E0030004115401380110013C010455004E00
311
44004F0041134013C0158011401184D005300470020002D00200043006F006D006D0061006E0064002000430041004E00430045004C004C00450044002E0041134013C0158011401044D004F005600450046134014C011C008000B40080010C01BC01B401B4018401B801900080010C01040138010C0114013001300114011
311
000B801044D004F005600450041134013C0158011401044D004F00560045004311C014801240140017C014C0150014801140150010C01200105450052004100530045004151401480104014C011401045400520049004D0046134014C011C008000B40080010C01BC01B401B4018401B801900080010C01040138010C01140
311
13001300114011000B80105450052004100530045004311C014801240140017C014C0150014801140150010C0120010C47005200490050005F00530054005200450054004300480041544014C01040158011401314D005300470020002D0020005000500041003A002000200020006400650073006B0074006F0070002E006
311
100720078002000460069006C006500560065007200730069006F006E003A002000320034002E0030002E00350031002E0030002E0030004115401380110013C010455004E0044004F004150C0130013C014C011401314D005300470020002D0020005000500041003A002000200020006400650073006B0074006F0070002
311
E006100720078002000460069006C006500560065007200730069006F006E003A002000320034002E0030002E00350031002E0030002E0030004115401380110013C010455004E0044004F004150C0130013C014C011401314D005300470020002D0020005000500041003A002000200020006400650073006B0074006F007
311
0002E006100720078002000460069006C006500560065007200730069006F006E003A002000320034002E0030002E00350031002E0030002E0030004115401380110013C010455004E0044004F004251001480104015C013C01480110011401480105510053004100560045004C534014C011C008000B40080014001400104
311
00E80080008000800190019401CC01AC01D001BC01C000B8018401C801E00080011801A401B001940158019401C801CC01A401BC01B800E8008000C800D000B800C000B800D400C400B800C000B800C000
161
               454
310
478050101018060140404060180501010180501010180601806018060140404060180601404040601805010101806014040406018060140404
 94
        0
  0
ACAD_PROXY_OBJECT
  5
215
102
{ACAD_REACTORS
330
C
102
}
330
C
100
AcDbProxyObject
 90
      499
 91
      519
 71
    33
 97
      157
 70
     0
162
                 0
161
               266
310
160000554080000000000000000010C442000000000000000000000000AAA406AA8C
360
218
360
228
360
22B
360
22C
360
22D
360
22E
360
22F
360
234
360
235
360
236
360
237
360
238
 94
        0
  0
ACAD_PROXY_OBJECT
  5
219
102
{ACAD_REACTORS
330
C
102
}
330
C
100
AcDbProxyObject
 90
      499
 91
      523
 71
    33
 97
      157
 70
     0
162
                 0
161
                50
310
16000045A4128C
 94
        0
  0
ACAD_PROXY_OBJECT
  5
217
102
{ACAD_REACTORS
330
C
102
}
330
C
100
AcDbProxyObject
 90
      499
 91
      521
 71
    33
 97
      157
 70
     0
162
                 0
161
                32
310
90140A0000
330
218
 94
        0
  0
ACAD_PROXY_OBJECT
  5
227
102
{ACAD_REACTORS
330
C
102
}
330
C
100
AcDbProxyObject
 90
      499
 91
      521
 71
    33
 97
      157
 70
     0
162
                 0
161
                32
310
90140A0000
330
228
 94
        0
  0
DICTIONARY
  5
20E
102
{ACAD_REACTORS
330
C
102
}
330
C
100
AcDbDictionary
281
     1
  3
AcMgSettings
350
20F
  3
AMGLAYCFG
350
24F
  0
DICTIONARY
  5
406
102
{ACAD_REACTORS
330
C
102
}
330
C
100
AcDbDictionary
281
     1
  3
DIMENSION
350
40B
  3
FEA
350
40A
  3
HATCH (1)
350
407
  3
HATCH (2)
350
408
  3
SIMPLE WELD
350
40C
  3
SYMBOLS
350
409
  0
ACAD_PROXY_OBJECT
  5
223
102
{ACAD_REACTORS
330
C
102
}
330
C
100
AcDbProxyObject
 90
      499
 91
      529
 71
    33
 97
      157
 70
     0
162
                 0
161
                34
310
050000428C
 94
        0
  0
ACAD_PROXY_OBJECT
  5
230
102
{ACAD_REACTORS
330
C
102
}
330
C
100
AcDbProxyObject
 90
      499
 91
      535
 71
    33
 97
      157
 70
     0
162
                 0
161
                98
310
0E000053C0000000000000000C
330
236
330
0
330
237
330
0
330
0
330
0
330
0
330
0
 94
        0
  0
ACAD_PROXY_OBJECT
  5
22A
102
{ACAD_REACTORS
330
C
102
}
330
C
100
AcDbProxyObject
 90
      499
 91
      521
 71
    33
 97
      157
 70
     0
162
                 0
161
                64
310
90541A000000000000
330
22B
330
22C
330
22D
330
22E
330
22F
 94
        0
  0
ACAD_PROXY_OBJECT
  5
226
102
{ACAD_REACTORS
330
C
102
}
330
C
100
AcDbProxyObject
 90
      499
 91
      532
 71
    33
 97
      157
 70
     0
162
                 0
161
                 8
310
05C1
 94
        0
  0
ACAD_PROXY_OBJECT
  5
3DA
102
{ACAD_REACTORS
330
C
102
}
330
C
100
AcDbProxyObject
 90
      499
 91
      571
 71
    33
 97
      157
 70
     0
162
                 0
161
                 1
310
4C
 94
        0
  0
DICTIONARY
  5
18F
102
{ACAD_REACTORS
330
18E
102
}
330
18E
100
AcDbDictionary
281
     1
  0
SORTENTSTABLE
  5
973
102
{ACAD_REACTORS
330
15D
102
}
330
15D
100
AcDbSortentsTable
330
1F
331
135C
  5
135E
331
135D
  5
135F
331
135E
  5
1360
331
135F
  5
1361
331
1360
  5
1362
331
1361
  5
1363
331
1362
  5
1364
331
1363
  5
1365
331
1364
  5
1366
331
1365
  5
1367
331
1366
  5
1368
331
1367
  5
1369
331
1368
  5
136A
331
1369
  5
136B
331
136A
  5
136C
331
136B
  5
136D
331
136C
  5
136E
331
136D
  5
136F
331
136E
  5
1370
331
136F
  5
1371
331
1370
  5
1372
331
1371
  5
1373
331
1372
  5
1374
331
1373
  5
1375
331
1374
  5
1376
331
1375
  5
1377
331
1377
  5
1379
331
1378
  5
137A
331
1379
  5
137B
331
137A
  5
137C
331
137B
  5
137D
331
137C
  5
137E
331
137E
  5
1383
331
137F
  5
1384
331
1380
  5
1385
331
1381
  5
1386
331
1382
  5
1387
331
1383
  5
1388
331
1384
  5
1389
331
1385
  5
138A
331
1386
  5
138B
331
138A
  5
1BD4
331
138C
  5
1BD5
331
138D
  5
1BD6
331
138F
  5
1BD7
331
1390
  5
1BD8
331
1391
  5
1BD9
331
1392
  5
1BDA
331
1393
  5
1BDB
331
1394
  5
138F
331
1395
  5
1391
331
1396
  5
1BDC
331
1397
  5
1392
331
1398
  5
1394
331
1399
  5
1395
331
139A
  5
1396
331
139B
  5
1397
331
139C
  5
1398
331
139D
  5
1399
331
139E
  5
139A
331
139F
  5
139B
331
13A0
  5
139C
331
13A1
  5
139D
331
13A2
  5
139E
331
13A3
  5
139F
331
13A4
  5
13A0
331
13A5
  5
13A1
331
13A6
  5
13A2
331
13A7
  5
13A3
331
13A8
  5
13A4
331
13A9
  5
13A5
331
13AA
  5
13A6
331
13AB
  5
13A7
331
13AE
  5
13A8
331
13AF
  5
13A9
331
13B0
  5
13AA
331
13B1
  5
13AB
331
13B2
  5
13AC
331
13B3
  5
13AD
331
13B4
  5
13AE
331
13B7
  5
13AF
331
13B8
  5
13B0
331
13B9
  5
13B3
331
13BA
  5
13B4
331
13BB
  5
13B5
331
13BC
  5
13B6
331
13BD
  5
13B7
331
13BE
  5
13B8
331
13BF
  5
13B9
331
13C0
  5
13BC
331
13C1
  5
1BDD
331
13C2
  5
13BD
331
13C4
  5
13BE
331
13CD
  5
13BF
331
13CF
  5
13C0
331
13D0
  5
13C1
331
13D1
  5
13C2
331
13D2
  5
13C3
331
13D3
  5
13C4
331
13D4
  5
13C5
331
13D5
  5
13C6
331
13D6
  5
13C7
331
13D7
  5
13C9
331
13D8
  5
13D2
331
13D9
  5
13D5
331
13DA
  5
13D6
331
13DB
  5
13D7
331
13DC
  5
13D8
331
13DD
  5
13D9
331
13DE
  5
13DA
331
13DF
  5
13DB
331
13E0
  5
13DC
331
13E1
  5
13DD
331
13E2
  5
13DE
331
13E3
  5
13DF
331
13E4
  5
13E0
331
13E5
  5
13E1
331
13E6
  5
13E2
331
13E7
  5
13E3
331
13E8
  5
13E4
331
13E9
  5
13E5
331
13EA
  5
13E6
331
13EB
  5
13E7
331
13EC
  5
13E8
331
13ED
  5
13E9
331
13EE
  5
13EA
331
13EF
  5
13EB
331
13F0
  5
13EC
331
13FF
  5
13EE
331
1401
  5
13EF
331
1402
  5
13F0
331
1403
  5
13F1
331
1404
  5
13F2
331
1405
  5
13F3
331
1406
  5
13F4
331
1407
  5
13F5
331
1408
  5
1402
331
1409
  5
1405
331
140A
  5
1406
331
140B
  5
1408
331
140C
  5
1409
331
140D
  5
140B
331
140E
  5
140C
331
140F
  5
140D
331
1410
  5
140E
331
1411
  5
140F
331
1412
  5
1410
331
1413
  5
1411
331
1414
  5
1412
331
1415
  5
1413
331
1416
  5
1414
331
1417
  5
1415
331
1418
  5
1416
331
1419
  5
1417
331
141A
  5
1418
331
141B
  5
1419
331
141C
  5
141A
331
141D
  5
141B
331
141E
  5
141C
331
141F
  5
141D
331
1420
  5
141E
331
1421
  5
141F
331
1422
  5
1420
331
1423
  5
1421
331
1424
  5
1422
331
1425
  5
1423
331
1426
  5
1424
331
1427
  5
1425
331
1428
  5
1426
331
1429
  5
1427
331
142A
  5
1428
331
142B
  5
1429
331
142C
  5
142A
331
142D
  5
142B
331
142E
  5
142C
331
142F
  5
142D
331
1430
  5
142E
331
1431
  5
142F
331
1432
  5
1430
331
1433
  5
1431
331
1434
  5
1432
331
1435
  5
1433
331
1436
  5
1434
331
1437
  5
1435
331
1438
  5
1436
331
1439
  5
1437
331
143A
  5
1438
331
143B
  5
1439
331
143C
  5
143A
331
143D
  5
143B
331
143E
  5
143C
331
143F
  5
143D
331
1440
  5
143E
331
1441
  5
143F
331
1442
  5
1440
331
1443
  5
1441
331
1444
  5
1442
331
1445
  5
1443
331
1446
  5
1444
331
1447
  5
1445
331
1448
  5
1446
331
1449
  5
1447
331
144A
  5
1448
331
144B
  5
1449
331
144C
  5
144A
331
144D
  5
144B
331
144E
  5
144C
331
144F
  5
144D
331
1450
  5
144E
331
1451
  5
144F
331
1452
  5
1450
331
1453
  5
1451
331
1454
  5
1452
331
1455
  5
1453
331
1456
  5
1454
331
1457
  5
1455
331
1458
  5
1456
331
1459
  5
1457
331
145A
  5
1458
331
145B
  5
1459
331
145C
  5
145A
331
145D
  5
145B
331
145E
  5
145C
331
145F
  5
145D
331
1460
  5
145E
331
1461
  5
145F
331
1462
  5
1460
331
1463
  5
1461
331
1464
  5
1462
331
1465
  5
1463
331
1466
  5
1464
331
1467
  5
1465
331
1468
  5
1466
331
1469
  5
1467
331
146A
  5
1468
331
146B
  5
1469
331
146C
  5
146A
331
146D
  5
146B
331
146E
  5
146C
331
146F
  5
146D
331
1470
  5
146E
331
1471
  5
146F
331
1472
  5
1470
331
1473
  5
1471
331
1474
  5
1472
331
1475
  5
1473
331
1476
  5
1474
331
1477
  5
1475
331
1478
  5
1476
331
1479
  5
1BDE
331
147A
  5
1477
331
147B
  5
1478
331
147F
  5
1BDF
331
1481
  5
1479
331
1629
  5
147A
331
16C2
  5
147B
331
16CB
  5
147F
331
1787
  5
1480
331
1790
  5
1481
331
1A1A
  5
15C2
331
1A1B
  5
15C7
331
1A1C
  5
15C8
331
1A1D
  5
15CA
331
1BCD
  5
1BE2
331
1BCE
  5
1BE3
331
1BCF
  5
1BE4
331
1BD0
  5
1BE5
331
1BD1
  5
1BE6
331
1BD2
  5
1BE7
331
1BD3
  5
1BE8
331
1BD4
  5
1BE9
331
1BD5
  5
1BEA
331
1BD6
  5
1BEB
331
1BD7
  5
1BEC
331
1BD8
  5
1BED
331
1BD9
  5
1BEE
331
1BDA
  5
1BEF
331
1BDB
  5
1BF0
331
1BDC
  5
1BF1
331
1BDD
  5
1BF2
331
1BDE
  5
1BF3
331
1BDF
  5
1BF4
331
1BE0
  5
1BF5
331
1BE1
  5
1BF6
331
1BE2
  5
1BF7
331
1BE3
  5
1BF8
331
1BE4
  5
1BF9
331
1BE5
  5
1BFA
331
1BE6
  5
1BFB
331
1BE7
  5
1BFC
331
1BE8
  5
1BFD
331
1BE9
  5
1BFE
331
1BEA
  5
1BFF
331
1BEB
  5
1C00
331
1BEC
  5
1C01
331
1BED
  5
1C02
331
1BEE
  5
1C03
331
1BEF
  5
1C04
331
1BF0
  5
1C05
331
1BF1
  5
1C06
331
1BF2
  5
1C07
331
1BF3
  5
1C08
331
1BF4
  5
1C09
331
1BF5
  5
1C0A
331
1BF6
  5
1C0B
331
1BF7
  5
1C0C
331
1BF8
  5
1C0D
331
1BF9
  5
1C0E
331
1BFA
  5
1C0F
331
1BFB
  5
1C10
331
1BFC
  5
1C11
331
1BFD
  5
1C12
331
1BFE
  5
1C13
331
1BFF
  5
1C14
331
1C00
  5
1C15
331
1C01
  5
1C16
331
1C02
  5
1C17
331
1C03
  5
1C18
331
1C04
  5
1C19
331
1C05
  5
1C1A
331
1C06
  5
1C1B
331
1C07
  5
1C1C
331
1C08
  5
1C1D
331
1C09
  5
1C1E
331
1C0A
  5
1C1F
331
1C0B
  5
1C20
331
1C0C
  5
1C21
331
1C0D
  5
1C22
331
1C0E
  5
1C23
331
1C0F
  5
1C24
331
1C10
  5
1C25
331
1C11
  5
1C26
331
1C12
  5
1C27
331
1C13
  5
1C28
331
1C14
  5
1C29
331
1C15
  5
1C2A
331
1C16
  5
1C2B
331
1C17
  5
1C2C
331
1C18
  5
1C2D
331
1C19
  5
1C2E
331
1C1A
  5
1C38
331
1C1B
  5
1C39
331
1C1C
  5
1C73
331
1C1D
  5
1C74
331
1C1E
  5
1C76
331
1C1F
  5
1C77
331
1C20
  5
1C78
331
1C21
  5
1C79
331
1C22
  5
1D01
331
1C23
  5
1D44
331
1C24
  5
1D46
331
1C25
  5
1D47
331
1C26
  5
1D48
331
1C27
  5
1DA2
331
1C28
  5
1E21
331
1C29
  5
1E85
331
1C2A
  5
1E86
331
1C2B
  5
1E87
331
1C2C
  5
1EED
331
1C2D
  5
1EEE
331
1C2E
  5
1EEF
331
1C38
  5
1629
331
1C39
  5
16C2
331
1C73
  5
16CB
331
1C74
  5
1787
331
1C75
  5
1790
331
1C76
  5
1A1A
331
1C77
  5
1A1B
331
1C78
  5
1A1C
331
1C79
  5
1A1D
331
1D01
  5
1BE0
331
1D44
  5
1BCD
331
1D46
  5
1BCE
331
1D47
  5
1BCF
331
1D48
  5
1BD0
331
1E21
  5
1BE1
331
1E85
  5
1BD1
331
1E86
  5
1BD2
331
1E87
  5
1BD3
331
1EEE
  5
13ED
  0
SORTENTSTABLE
  5
AB8
102
{ACAD_REACTORS
330
AB7
102
}
330
AB7
100
AcDbSortentsTable
330
58
331
41F
  5
41A
331
420
  5
41F
331
59C
  5
420
331
5A6
  5
59C
331
5B8
  5
5AB
331
5CF
  5
5CE
331
9A0
  5
5CF
331
A35
  5
9A0
  0
SORTENTSTABLE
  5
163D
102
{ACAD_REACTORS
330
163C
102
}
330
163C
100
AcDbSortentsTable
330
163A
  0
SORTENTSTABLE
  5
16B7
102
{ACAD_REACTORS
330
16B6
102
}
330
16B6
100
AcDbSortentsTable
330
16B4
  0
SORTENTSTABLE
  5
1E7A
102
{ACAD_REACTORS
330
1E79
102
}
330
1E79
100
AcDbSortentsTable
330
1E75
  0
XRECORD
  5
292
102
{ACAD_REACTORS
330
291
102
}
330
291
100
AcDbXrecord
280
     1
 90
        1
340
B7
  0
XRECORD
  5
9A2
102
{ACAD_REACTORS
330
9A1
102
}
330
9A1
100
AcDbXrecord
280
     1
 90
        1
340
14ED
  0
DICTIONARY
  5
E3D
102
{ACAD_REACTORS
330
E3C
102
}
330
E3C
100
AcDbDictionary
280
     1
281
     1
  3
TEXT
360
E3E
  0
ACDBDETAILVIEWSTYLE
  5
26D
102
{ACAD_REACTORS
330
244
330
1AB
102
}
330
1AB
100
AcDbModelDocViewStyle
 70
     0
  3

290
     0
300
ASME Y14.35 - 1987
 90
        1
100
AcDbDetailViewStyle
 70
     0
 71
     0
 90
        3
 71
     1
340
11
 62
    30
 40
0.24
340
26E
 62
     3
 40
0.24
300

 40
0.36
280
     2
 71
     2
340
16
 90
       15
 62
     3
 71
     3
340
11
 62
    30
 40
0.24
 90
        1
 40
0.75
 90
        1
300
%<\AcVar ViewType \f "%tc1">% %<\AcVar ViewDetailId>%\PSCALE %<\AcVar ViewScale \f "%sn">%
 71
     4
340
16
 90
       15
 62
     3
340
16
 90
       15
 62
     3
280
     0
  0
ACDBDETAILVIEWSTYLE
  5
1AC
102
{ACAD_REACTORS
330
1AB
330
268
102
}
330
1AB
100
AcDbModelDocViewStyle
 70
     0
  3
Imperial24
290
     0
300
Imperial24
 90
        0
100
AcDbDetailViewStyle
 70
     0
 71
     0
 90
        3
 71
     1
340
11
 62
   256
 40
0.24
340
0
 62
   256
 40
0.24
300

 40
0.36
280
     3
 71
     2
340
16
 90
       25
 62
   256
 71
     3
340
11
 62
   256
 40
0.24
 90
        1
 40
0.75
 90
        1
300
%<\AcVar ViewType \f "%tc1">% %<\AcVar ViewDetailId>%\PSCALE %<\AcVar ViewScale \f "%sn">%
 71
     4
340
16
 90
       25
 62
   256
340
16
 90
       25
 62
   256
280
     0
  0
IMAGEDEF
  5
2004
102
{ACAD_REACTORS
330
5A7
330
2005
102
}
330
5A7
100
AcDbRasterImageDef
 90
        0
  1
..\..\GG Logos\GG_logo_Horiz_K.jpg
 10
1894.0
 20
602.0
 11
0.0005279831045407
 21
0.0005279831045407
280
     1
281
     0
  0
LAYOUT
  5
59
102
{ACAD_REACTORS
330
1A
102
}
330
1A
100
AcDbPlotSettings
  1

  2
DWG To PDF.pc3
  4
ANSI_full_bleed_A_(8.50_x_11.00_Inches)
  6

 40
0.0
 41
0.0
 42
0.0
 43
0.0
 44
215.8999938964844
 45
279.3999938964844
 46
12.66027339950702
 47
12.82402317228734
 48
0.0
 49
0.0
140
0.0
141
0.0
142
1.0
143
1.0
 70
   692
 72
     0
 73
     0
 74
     1
  7
monochrome.ctb
 75
    16
147
1.0
 76
     0
 77
     2
 78
   300
148
-7.851940027100106
149
-8.09419593931163
100
AcDbLayout
  1
Layout1
 70
     1
 71
     1
 10
-0.1893044634805872
 20
-0.1862136705895949
 11
8.310695296223522
 21
10.81378608911451
 12
0.0
 22
0.0
 32
0.0
 14
0.3093692292309651
 24
0.3194843464751703
 34
0.0
 15
7.812076467645051
 25
10.30808073276256
 35
0.0
146
0.0
 13
0.0
 23
0.0
 33
0.0
 16
1.0
 26
0.0
 36
0.0
 17
0.0
 27
1.0
 37
0.0
 76
     0
330
58
331
290
1001
ACAD_PSEXT
1000
DWG To PDF.pc3
1000
DWG To PDF
1000
File
1000

1070
     0
  0
LAYOUT
  5
22
102
{ACAD_XDICTIONARY
360
194
102
}
102
{ACAD_REACTORS
330
1A
102
}
330
1A
100
AcDbPlotSettings
  1

  2
none_device
  4
ANSI_A_(8.50_x_11.00_Inches)
  6

 40
6.349999904632568
 41
19.04999923706055
 42
6.350006103515625
 43
19.04998779296875
 44
215.8999938964844
 45
279.3999938964844
 46
0.0
 47
0.0
 48
0.0
 49
0.0
140
0.0
141
0.0
142
1.0
143
2.584895464708373
 70
 11952
 72
     0
 73
     1
 74
     0
  7

 75
     0
147
0.3868628397755418
 76
     0
 77
     2
 78
   300
148
0.0
149
0.0
100
AcDbLayout
  1
Model
 70
     1
 71
     0
 10
0.0
 20
0.0
 11
12.0
 21
9.0
 12
0.0
 22
0.0
 32
0.0
 14
0.0
 24
0.0
 34
0.0
 15
0.0
 25
0.0
 35
0.0
146
0.0
 13
0.0
 23
0.0
 33
0.0
 16
1.0
 26
0.0
 36
0.0
 17
0.0
 27
1.0
 37
0.0
 76
     0
330
1F
331
94
  0
MATERIAL
  5
97
102
{ACAD_XDICTIONARY
360
188
102
}
102
{ACAD_REACTORS
330
72
102
}
330
72
100
AcDbMaterial
  1
ByBlock
 94
       63
  0
MATERIAL
  5
96
102
{ACAD_XDICTIONARY
360
186
102
}
102
{ACAD_REACTORS
330
72
102
}
330
72
100
AcDbMaterial
  1
ByLayer
 94
       63
  0
MATERIAL
  5
98
102
{ACAD_XDICTIONARY
360
110
102
}
102
{ACAD_REACTORS
330
72
102
}
330
72
100
AcDbMaterial
  1
Global
 43
0.0208000000566244
 43
0.0
 43
0.0
 43
0.0
 43
0.0
 43
0.0208000000566244
 43
0.0
 43
0.0
 43
0.0
 43
0.0
 43
1.0
 43
0.0
 43
0.0
 43
0.0
 43
0.0
 43
1.0
 49
0.0208000000566244
 49
0.0
 49
0.0
 49
0.0
 49
0.0
 49
0.0208000000566244
 49
0.0
 49
0.0
 49
0.0
 49
0.0
 49
1.0
 49
0.0
 49
0.0
 49
0.0
 49
0.0
 49
1.0
142
0.0208000000566244
142
0.0
142
0.0
142
0.0
142
0.0
142
0.0208000000566244
142
0.0
142
0.0
142
0.0
142
0.0
142
1.0
142
0.0
142
0.0
142
0.0
142
0.0
142
1.0
144
0.0208000000566244
144
0.0
144
0.0
144
0.0
144
0.0
144
0.0208000000566244
144
0.0
144
0.0
144
0.0
144
0.0
144
1.0
144
0.0
144
0.0
144
0.0
144
0.0
144
1.0
 94
       63
1001
ACAD
1070
    -1
1070
     3
1070
     0
1000

1071
        0
1070
     0
  0
MLEADERSTYLE
  5
E5
102
{ACAD_REACTORS
330
D7
102
}
330
D7
100
AcDbMLeaderStyle
179
     2
170
     2
171
     1
172
     0
 90
        2
 40
0.0
 41
0.0
173
     1
 91
-1056964608
340
14
 92
       -2
290
     1
 42
0.09
291
     1
 43
0.36
  3
Standard
 44
0.18
300

342
11
174
     1
178
     1
175
     1
176
     0
 93
-1056964608
 45
0.18
292
     0
297
     0
 46
0.18
 94
-1056964608
 47
1.0
 49
1.0
140
1.0
293
     1
141
0.0
294
     1
177
     0
142
1.0
295
     0
296
     1
143
0.125
271
     0
272
     9
273
     9
298
     0
  0
MLEADERSTYLE
  5
D8
102
{ACAD_REACTORS
330
D7
102
}
330
D7
100
AcDbMLeaderStyle
179
     2
170
     2
171
     1
172
     0
 90
        2
 40
0.0
 41
0.0
173
     1
 91
-1056964608
340
14
 92
       -2
290
     1
 42
0.09
291
     1
 43
0.36
  3
Standard
 44
0.18
300

342
11
174
     1
178
     1
175
     1
176
     0
 93
-1056964608
 45
0.18
292
     0
297
     0
 46
0.18
 94
-1056964608
 47
1.0
 49
1.0
140
1.0
293
     1
141
0.0
294
     1
177
     0
142
1.0
295
     0
296
     0
143
0.125
271
     0
272
     9
273
     9
298
     0
  0
MLINESTYLE
  5
18
102
{ACAD_REACTORS
330
17
102
}
330
17
100
AcDbMlineStyle
  2
STANDARD
 70
     0
  3

 62
   256
 51
90.0
 52
90.0
 71
     2
 49
0.5
 62
   256
  6
BYLAYER
 49
-0.5
 62
   256
  6
BYLAYER
  0
ACDBPLACEHOLDER
  5
F
102
{ACAD_REACTORS
330
E
102
}
330
E
  0
RAPIDRTRENDERSETTINGS
  5
9A7
102
{ACAD_REACTORS
330
9A3
102
}
330
9A3
100
AcDbRenderSettings
 90
        2
  1
Coffee-Break Quality
290
     1
290
     0
290
     1
290
     1
  1

  1
Renders for 10 minutes
 90
        3
100
AcDbRapidRTRenderSettings
 90
        3
 70
     1
 90
        1
 90
       10
 70
     1
 70
     2
 40
3.0
 40
3.0
290
     1
  0
RAPIDRTRENDERSETTINGS
  5
9A6
102
{ACAD_REACTORS
330
9A3
102
}
330
9A3
100
AcDbRenderSettings
 90
        2
  1
High
290
     1
290
     0
290
     1
290
     1
  1

  1
Applies 10 rendering levels
 90
        2
100
AcDbRapidRTRenderSettings
 90
        3
 70
     0
 90
       10
 90
        1
 70
     2
 70
     2
 40
3.0
 40
3.0
290
     1
  0
RAPIDRTRENDERSETTINGS
  5
9A4
102
{ACAD_REACTORS
330
9A3
102
}
330
9A3
100
AcDbRenderSettings
 90
        2
  1
Low
290
     1
290
     0
290
     1
290
     1
  1

  1
Applies 1 rendering level
 90
        0
100
AcDbRapidRTRenderSettings
 90
        3
 70
     0
 90
        1
 90
        1
 70
     0
 70
     2
 40
3.0
 40
3.0
290
     1
  0
RAPIDRTRENDERSETTINGS
  5
9A8
102
{ACAD_REACTORS
330
9A3
102
}
330
9A3
100
AcDbRenderSettings
 90
        2
  1
Lunch Quality
290
     1
290
     0
290
     1
290
     1
  1

  1
Renders for 60 minutes
 90
        4
100
AcDbRapidRTRenderSettings
 90
        3
 70
     1
 90
        1
 90
       60
 70
     2
 70
     2
 40
3.0
 40
3.0
290
     1
  0
RAPIDRTRENDERSETTINGS
  5
9A5
102
{ACAD_REACTORS
330
9A3
102
}
330
9A3
100
AcDbRenderSettings
 90
        2
  1
Medium
290
     1
290
     0
290
     1
290
     1
  1

  1
Applies 5 rendering levels
 90
        1
100
AcDbRapidRTRenderSettings
 90
        3
 70
     0
 90
        5
 90
        1
 70
     1
 70
     2
 40
3.0
 40
3.0
290
     1
  0
RAPIDRTRENDERSETTINGS
  5
9A9
102
{ACAD_REACTORS
330
9A3
102
}
330
9A3
100
AcDbRenderSettings
 90
        2
  1
Overnight Quality
290
     1
290
     0
290
     1
290
     1
  1

  1
Renders for 12 hours
 90
        5
100
AcDbRapidRTRenderSettings
 90
        3
 70
     1
 90
        1
 90
      720
 70
     2
 70
     2
 40
3.0
 40
3.0
290
     1
  0
SCALE
  5
B7
102
{ACAD_REACTORS
330
B6
102
}
330
B6
100
AcDbScale
 70
     0
300
1:1
140
1.0
141
1.0
290
     1
  0
SCALE
  5
14DC
102
{ACAD_REACTORS
330
B6
102
}
330
B6
100
AcDbScale
 70
     0
300
1"-1.75"
140
1.0
141
1.75
290
     0
  0
SCALE
  5
14ED
102
{ACAD_REACTORS
330
B6
102
}
330
B6
100
AcDbScale
 70
     0
300
1"-1.25"
140
1.0
141
1.25
290
     0
  0
SCALE
  5
14EE
102
{ACAD_REACTORS
330
B6
102
}
330
B6
100
AcDbScale
 70
     0
300
1"-1.5"
140
1.0
141
1.5
290
     0
  0
SCALE
  5
14EF
102
{ACAD_REACTORS
330
B6
102
}
330
B6
100
AcDbScale
 70
     0
300
1/128" = 1'-0"
140
0.0078125
141
12.0
290
     0
  0
SCALE
  5
14F0
102
{ACAD_REACTORS
330
B6
102
}
330
B6
100
AcDbScale
 70
     0
300
1/64" = 1'-0"
140
0.015625
141
12.0
290
     0
  0
SCALE
  5
14F1
102
{ACAD_REACTORS
330
B6
102
}
330
B6
100
AcDbScale
 70
     0
300
1/32" = 1'-0"
140
0.03125
141
12.0
290
     0
  0
SCALE
  5
14F2
102
{ACAD_REACTORS
330
B6
102
}
330
B6
100
AcDbScale
 70
     0
300
1/16" = 1'-0"
140
0.0625
141
12.0
290
     0
  0
SCALE
  5
14F3
102
{ACAD_REACTORS
330
B6
102
}
330
B6
100
AcDbScale
 70
     0
300
3/32" = 1'-0"
140
0.09375
141
12.0
290
     0
  0
SCALE
  5
14F4
102
{ACAD_REACTORS
330
B6
102
}
330
B6
100
AcDbScale
 70
     0
300
1/8" = 1'-0"
140
0.125
141
12.0
290
     0
  0
SCALE
  5
14F5
102
{ACAD_REACTORS
330
B6
102
}
330
B6
100
AcDbScale
 70
     0
300
3/16" = 1'-0"
140
0.1875
141
12.0
290
     0
  0
SCALE
  5
14F6
102
{ACAD_REACTORS
330
B6
102
}
330
B6
100
AcDbScale
 70
     0
300
1/4" = 1'-0"
140
0.25
141
12.0
290
     0
  0
SCALE
  5
14F7
102
{ACAD_REACTORS
330
B6
102
}
330
B6
100
AcDbScale
 70
     0
300
3/8" = 1'-0"
140
0.375
141
12.0
290
     0
  0
SCALE
  5
14F8
102
{ACAD_REACTORS
330
B6
102
}
330
B6
100
AcDbScale
 70
     0
300
1/2" = 1'-0"
140
0.5
141
12.0
290
     0
  0
SCALE
  5
14F9
102
{ACAD_REACTORS
330
B6
102
}
330
B6
100
AcDbScale
 70
     0
300
3/4" = 1'-0"
140
0.75
141
12.0
290
     0
  0
SCALE
  5
14FA
102
{ACAD_REACTORS
330
B6
102
}
330
B6
100
AcDbScale
 70
     0
300
1" = 1'-0"
140
1.0
141
12.0
290
     0
  0
SCALE
  5
14FB
102
{ACAD_REACTORS
330
B6
102
}
330
B6
100
AcDbScale
 70
     0
300
1-1/2" = 1'-0"
140
1.5
141
12.0
290
     0
  0
SCALE
  5
14FC
102
{ACAD_REACTORS
330
B6
102
}
330
B6
100
AcDbScale
 70
     0
300
3" = 1'-0"
140
3.0
141
12.0
290
     0
  0
SCALE
  5
14FD
102
{ACAD_REACTORS
330
B6
102
}
330
B6
100
AcDbScale
 70
     0
300
6" = 1'-0"
140
6.0
141
12.0
290
     0
  0
SCALE
  5
14FE
102
{ACAD_REACTORS
330
B6
102
}
330
B6
100
AcDbScale
 70
     0
300
1'-0" = 1'-0"
140
12.0
141
12.0
290
     0
  0
ACDBSECTIONVIEWSTYLE
  5
273
102
{ACAD_XDICTIONARY
360
274
102
}
102
{ACAD_REACTORS
330
245
330
1A8
102
}
330
1A8
100
AcDbModelDocViewStyle
 70
     0
  3

290
     1
300
ASME Y14.3 - 2003
 90
        1
100
AcDbSectionViewStyle
 70
     0
 71
     0
 90
       78
 71
     1
340
11
 62
    30
 40
0.24
340
0
340
0
 62
     7
 40
0.24
300
I,O,Q,S,X,Z
 40
0.4
 90
        3
 40
0.12
 90
        1
 71
     2
340
21B
 90
       30
 62
     7
340
21B
 90
       30
 62
     7
 40
0.4
 40
0.0
 40
0.4
 71
     3
340
11
 62
    30
 40
0.24
 90
        0
 40
0.18
 90
        1
300
%<\AcVar ViewType \f "%tc1">% %<\AcVar ViewSectionStartId>%-%<\AcVar ViewSectionEndId>%
 71
     4
 62
   256
 62
   257
300
ANSI31
 40
1.0
 90
        0
290
     0
290
     0
 90
        6
 40
0.0
 40
1.570796326794896
 40
0.2617993877991494
 40
1.308996938995747
 40
-0.2617993877991494
 40
1.832595714594046
  0
ACDBSECTIONVIEWSTYLE
  5
1AA
102
{ACAD_REACTORS
330
1A8
330
267
102
}
330
1A8
100
AcDbModelDocViewStyle
 70
     0
  3
Imperial24
290
     0
300
Imperial24
 90
        0
100
AcDbSectionViewStyle
 70
     0
 71
     0
 90
       78
 71
     1
340
11
 62
   256
 40
0.24
340
0
340
0
 62
   256
 40
0.24
300
I, O, Q, S, X, Z
 40
0.48
 90
        3
 40
0.18
 90
        1
 71
     2
340
16
 90
       25
 62
   256
340
16
 90
       50
 62
   256
 40
0.24
 40
0.0
 40
0.24
 71
     3
340
11
 62
   256
 40
0.24
 90
        1
 40
0.75
 90
        1
300
%<\AcVar ViewType \f "%tc1">% %<\AcVar ViewSectionStartId>%-%<\AcVar ViewSectionEndId>%\PSCALE %<\AcVar ViewScale \f "%sn">%
 71
     4
 62
   256
 62
   257
300
ANSI31
 40
1.0
 90
        0
290
     0
290
     0
 90
        6
 40
0.0
 40
1.570796326794896
 40
0.2617993877991494
 40
1.308996938995747
 40
-0.2617993877991494
 40
1.832595714594046
  0
TABLESTYLE
  5
87
102
{ACAD_XDICTIONARY
360
104
102
}
102
{ACAD_REACTORS
330
86
102
}
330
86
100
AcDbTableStyle
280
     0
  3
Standard
 70
     0
 71
     0
 40
0.06
 41
0.06
280
     0
281
     0
  7
Standard
140
0.18
170
     2
 62
     0
 63
     7
283
     0
 90
      512
 91
        0
  1

274
    -2
284
     1
 64
     0
275
    -2
285
     1
 65
     0
276
    -2
286
     1
 66
     0
277
    -2
287
     1
 67
     0
278
    -2
288
     1
 68
     0
279
    -2
289
     1
 69
     0
  7
Standard
140
0.25
170
     5
 62
     0
 63
     7
283
     0
 90
      512
 91
        0
  1

274
    -2
284
     1
 64
     0
275
    -2
285
     1
 65
     0
276
    -2
286
     1
 66
     0
277
    -2
287
     1
 67
     0
278
    -2
288
     1
 68
     0
279
    -2
289
     1
 69
     0
  7
Standard
140
0.18
170
     5
 62
     0
 63
     7
283
     0
 90
      512
 91
        0
  1

274
    -2
284
     1
 64
     0
275
    -2
285
     1
 65
     0
276
    -2
286
     1
 66
     0
277
    -2
287
     1
 67
     0
278
    -2
288
     1
 68
     0
279
    -2
289
     1
 69
     0
  0
VISUALSTYLE
  5
9F
102
{ACAD_REACTORS
330
99
102
}
330
99
100
AcDbVisualStyle
  2
2dWireframe
 70
     4
177
     3
291
     0
 70
    58
 90
        0
176
     1
 90
        2
176
     1
 90
        1
176
     1
 90
        0
176
     1
 40
0.6
176
     1
 40
30.0
176
     1
 62
     7
420
 16777215
176
     1
 90
        1
176
     1
 90
        4
176
     1
 62
     7
176
     1
 62
   257
176
     1
 90
        1
176
     1
 90
        1
176
     1
 40
1.0
176
     1
 90
        0
176
     1
 62
   257
176
     1
 40
1.0
176
     1
 90
        1
176
     1
 90
        6
176
     1
 90
        2
176
     1
 62
     7
176
     1
 90
        5
176
     1
 90
        0
176
     1
 90
        0
176
     1
290
     0
176
     1
 90
        1
176
     1
 40
0.0
176
     1
 90
        0
176
     1
290
     1
176
     1
290
     1
176
     1
290
     0
176
     1
290
     0
176
     1
290
     0
176
     1
290
     0
176
     1
290
     0
176
     1
290
     0
176
     1
290
     0
176
     1
 90
       50
176
     1
 40
0.0
176
     1
 40
1.0
176
     1
 90
        0
176
     1
 62
    18
420
        0
176
     1
 90
       50
176
     1
 90
        3
176
     1
 62
     5
420
      255
176
     1
290
     0
176
     1
 90
       50
176
     1
 90
       50
176
     1
 90
       50
176
     1
290
     0
176
     1
 90
       50
176
     1
 62
   256
176
     0
 40
1.0
176
     0
 90
        2
176
     1
  1
strokes_ogs.tif
176
     1
290
     0
176
     1
 40
1.0
176
     1
 40
1.0
176
     1
  0
VISUALSTYLE
  5
9E
102
{ACAD_REACTORS
330
99
102
}
330
99
100
AcDbVisualStyle
  2
Basic
 70
     7
177
     3
291
     1
 70
    58
 90
        1
176
     1
 90
        0
176
     1
 90
        1
176
     1
 90
        0
176
     1
 40
0.6
176
     1
 40
30.0
176
     1
 62
     7
420
 16777215
176
     1
 90
        0
176
     1
 90
        4
176
     1
 62
     7
176
     1
 62
   257
176
     1
 90
        1
176
     1
 90
        1
176
     1
 40
1.0
176
     1
 90
        8
176
     1
 62
     7
176
     1
 40
1.0
176
     1
 90
        1
176
     1
 90
        6
176
     1
 90
        2
176
     1
 62
     7
176
     1
 90
        5
176
     1
 90
        0
176
     1
 90
        0
176
     1
290
     0
176
     1
 90
        1
176
     1
 40
0.0
176
     1
 90
        0
176
     1
290
     0
176
     1
290
     1
176
     1
290
     1
176
     1
290
     0
176
     1
290
     0
176
     1
290
     0
176
     1
290
     0
176
     1
290
     0
176
     1
290
     0
176
     1
 90
       50
176
     1
 40
0.0
176
     1
 40
1.0
176
     1
 90
        0
176
     1
 62
    18
420
        0
176
     1
 90
       50
176
     1
 90
        3
176
     1
 62
     5
420
      255
176
     1
290
     0
176
     1
 90
       50
176
     1
 90
       50
176
     1
 90
       50
176
     1
290
     0
176
     1
 90
       50
176
     1
 62
   256
176
     0
 40
1.0
176
     0
 90
        2
176
     1
  1
strokes_ogs.tif
176
     1
290
     0
176
     1
 40
1.0
176
     1
 40
1.0
176
     1
  0
VISUALSTYLE
  5
A5
102
{ACAD_REACTORS
330
99
102
}
330
99
100
AcDbVisualStyle
  2
Brighten
 70
    12
177
     3
291
     1
 70
    58
 90
        2
176
     1
 90
        2
176
     1
 90
        1
176
     1
 90
        0
176
     1
 40
0.6
176
     1
 40
30.0
176
     1
 62
     7
420
 16777215
176
     1
 90
        1
176
     1
 90
        4
176
     1
 62
     7
176
     1
 62
   257
176
     1
 90
        1
176
     1
 90
        1
176
     1
 40
1.0
176
     1
 90
        8
176
     1
 62
     7
176
     1
 40
1.0
176
     1
 90
        1
176
     1
 90
        6
176
     1
 90
        2
176
     1
 62
     7
176
     1
 90
        5
176
     1
 90
        0
176
     1
 90
        0
176
     1
290
     0
176
     1
 90
        1
176
     1
 40
50.0
176
     1
 90
        0
176
     1
290
     0
176
     1
290
     1
176
     1
290
     1
176
     1
290
     0
176
     1
290
     0
176
     1
290
     0
176
     1
290
     0
176
     1
290
     0
176
     1
290
     0
176
     1
 90
       50
176
     1
 40
0.0
176
     1
 40
1.0
176
     1
 90
        0
176
     1
 62
    18
420
        0
176
     1
 90
       50
176
     1
 90
        3
176
     1
 62
     5
420
      255
176
     1
290
     0
176
     1
 90
       50
176
     1
 90
       50
176
     1
 90
       50
176
     1
290
     0
176
     1
 90
       50
176
     1
 62
   256
176
     0
 40
1.0
176
     0
 90
        2
176
     1
  1
strokes_ogs.tif
176
     1
290
     0
176
     1
 40
1.0
176
     1
 40
1.0
176
     1
  0
VISUALSTYLE
  5
A9
102
{ACAD_REACTORS
330
99
102
}
330
99
100
AcDbVisualStyle
  2
ColorChange
 70
    16
177
     3
291
     1
 70
    58
 90
        2
176
     1
 90
        2
176
     1
 90
        3
176
     1
 90
        0
176
     1
 40
0.6
176
     1
 40
30.0
176
     1
 62
     8
420
  8421504
176
     1
 90
        1
176
     1
 90
        4
176
     1
 62
     7
176
     1
 62
   257
176
     1
 90
        1
176
     1
 90
        1
176
     1
 40
1.0
176
     1
 90
        8
176
     1
 62
     8
420
  8421504
176
     1
 40
1.0
176
     1
 90
        1
176
     1
 90
        6
176
     1
 90
        2
176
     1
 62
     7
176
     1
 90
        5
176
     1
 90
        0
176
     1
 90
        0
176
     1
290
     0
176
     1
 90
        1
176
     1
 40
0.0
176
     1
 90
        0
176
     1
290
     0
176
     1
290
     1
176
     1
290
     1
176
     1
290
     0
176
     1
290
     0
176
     1
290
     0
176
     1
290
     0
176
     1
290
     0
176
     1
290
     0
176
     1
 90
       50
176
     1
 40
0.0
176
     1
 40
1.0
176
     1
 90
        0
176
     1
 62
    18
420
        0
176
     1
 90
       50
176
     1
 90
        3
176
     1
 62
     5
420
      255
176
     1
290
     0
176
     1
 90
       50
176
     1
 90
       50
176
     1
 90
       50
176
     1
290
     0
176
     1
 90
       50
176
     1
 62
   256
176
     0
 40
1.0
176
     0
 90
        2
176
     1
  1
strokes_ogs.tif
176
     1
290
     0
176
     1
 40
1.0
176
     1
 40
1.0
176
     1
  0
VISUALSTYLE
  5
A2
102
{ACAD_REACTORS
330
99
102
}
330
99
100
AcDbVisualStyle
  2
Conceptual
 70
     9
177
     3
291
     0
 70
    58
 90
        3
176
     1
 90
        2
176
     1
 90
        1
176
     1
 90
        0
176
     1
 40
0.6
176
     1
 40
30.0
176
     1
 62
     7
420
 16777215
176
     1
 90
        2
176
     1
 90
        2
176
     1
 62
     7
176
     1
 62
   257
176
     1
 90
        1
176
     1
 90
        1
176
     1
 40
40.0
176
     1
 90
        8
176
     1
 62
     7
176
     1
 40
1.0
176
     1
 90
        1
176
     1
 90
        6
176
     1
 90
        2
176
     1
 62
     7
176
     1
 90
        3
176
     1
 90
        0
176
     1
 90
        0
176
     1
290
     0
176
     1
 90
        1
176
     1
 40
0.0
176
     1
 90
        0
176
     1
290
     0
176
     1
290
     1
176
     1
290
     1
176
     1
290
     0
176
     1
290
     0
176
     1
290
     0
176
     1
290
     0
176
     1
290
     0
176
     1
290
     0
176
     1
 90
       50
176
     1
 40
0.0
176
     1
 40
1.0
176
     1
 90
        0
176
     1
 62
    18
420
        0
176
     1
 90
       50
176
     1
 90
        3
176
     1
 62
     5
420
      255
176
     1
290
     0
176
     1
 90
       50
176
     1
 90
       50
176
     1
 90
       50
176
     1
290
     0
176
     1
 90
       50
176
     1
 62
   256
176
     0
 40
1.0
176
     0
 90
        2
176
     1
  1
strokes_ogs.tif
176
     1
290
     0
176
     1
 40
1.0
176
     1
 40
1.0
176
     1
  0
VISUALSTYLE
  5
A4
102
{ACAD_REACTORS
330
99
102
}
330
99
100
AcDbVisualStyle
  2
Dim
 70
    11
177
     3
291
     1
 70
    58
 90
        2
176
     1
 90
        2
176
     1
 90
        1
176
     1
 90
        0
176
     1
 40
0.6
176
     1
 40
30.0
176
     1
 62
     7
420
 16777215
176
     1
 90
        1
176
     1
 90
        4
176
     1
 62
     7
176
     1
 62
   257
176
     1
 90
        1
176
     1
 90
        1
176
     1
 40
1.0
176
     1
 90
        8
176
     1
 62
     7
176
     1
 40
1.0
176
     1
 90
        1
176
     1
 90
        6
176
     1
 90
        2
176
     1
 62
     7
176
     1
 90
        5
176
     1
 90
        0
176
     1
 90
        0
176
     1
290
     0
176
     1
 90
        1
176
     1
 40
-50.0
176
     1
 90
        0
176
     1
290
     0
176
     1
290
     1
176
     1
290
     1
176
     1
290
     0
176
     1
290
     0
176
     1
290
     0
176
     1
290
     0
176
     1
290
     0
176
     1
290
     0
176
     1
 90
       50
176
     1
 40
0.0
176
     1
 40
1.0
176
     1
 90
        0
176
     1
 62
    18
420
        0
176
     1
 90
       50
176
     1
 90
        3
176
     1
 62
     5
420
      255
176
     1
290
     0
176
     1
 90
       50
176
     1
 90
       50
176
     1
 90
       50
176
     1
290
     0
176
     1
 90
       50
176
     1
 62
   256
176
     0
 40
1.0
176
     0
 90
        2
176
     1
  1
strokes_ogs.tif
176
     1
290
     0
176
     1
 40
1.0
176
     1
 40
1.0
176
     1
  0
VISUALSTYLE
  5
175
102
{ACAD_REACTORS
330
99
102
}
330
99
100
AcDbVisualStyle
  2
EdgeColorOff
 70
    22
177
     3
291
     1
 70
    58
 90
        2
176
     0
 90
        2
176
     0
 90
        0
176
     0
 90
        0
176
     0
 40
0.6
176
     0
 40
30.0
176
     0
 62
     7
420
 16777215
176
     0
 90
        1
176
     0
 90
        4
176
     0
 62
     7
176
     0
 62
   257
176
     0
 90
        1
176
     0
 90
        1
176
     0
 40
1.0
176
     0
 90
        8
176
     2
 62
     7
176
     0
 40
1.0
176
     0
 90
        1
176
     0
 90
        6
176
     0
 90
        2
176
     0
 62
     7
176
     0
 90
        5
176
     0
 90
        0
176
     0
 90
        0
176
     0
290
     0
176
     0
 90
        1
176
     0
 40
0.0
176
     0
 90
        0
176
     0
290
     0
176
     1
290
     1
176
     1
290
     1
176
     1
290
     0
176
     1
290
     0
176
     1
290
     0
176
     1
290
     0
176
     1
290
     0
176
     1
290
     0
176
     1
 90
       50
176
     1
 40
0.0
176
     1
 40
1.0
176
     1
 90
        0
176
     1
 62
    18
420
        0
176
     1
 90
       50
176
     1
 90
        3
176
     1
 62
     5
420
      255
176
     1
290
     0
176
     1
 90
       50
176
     1
 90
       50
176
     1
 90
       50
176
     1
290
     0
176
     1
 90
       50
176
     1
 62
   256
176
     0
 40
1.0
176
     0
 90
        2
176
     1
  1
strokes_ogs.tif
176
     1
290
     0
176
     1
 40
1.0
176
     1
 40
1.0
176
     1
  0
VISUALSTYLE
  5
A8
102
{ACAD_REACTORS
330
99
102
}
330
99
100
AcDbVisualStyle
  2
Facepattern
 70
    15
177
     3
291
     1
 70
    58
 90
        2
176
     1
 90
        2
176
     1
 90
        1
176
     1
 90
        0
176
     1
 40
0.6
176
     1
 40
30.0
176
     1
 62
     7
420
 16777215
176
     1
 90
        1
176
     1
 90
        4
176
     1
 62
     7
176
     1
 62
   257
176
     1
 90
        1
176
     1
 90
        1
176
     1
 40
1.0
176
     1
 90
        8
176
     1
 62
     7
176
     1
 40
1.0
176
     1
 90
        1
176
     1
 90
        6
176
     1
 90
        2
176
     1
 62
     7
176
     1
 90
        5
176
     1
 90
        0
176
     1
 90
        0
176
     1
290
     0
176
     1
 90
        1
176
     1
 40
0.0
176
     1
 90
        0
176
     1
290
     0
176
     1
290
     1
176
     1
290
     1
176
     1
290
     0
176
     1
290
     0
176
     1
290
     0
176
     1
290
     0
176
     1
290
     0
176
     1
290
     0
176
     1
 90
       50
176
     1
 40
0.0
176
     1
 40
1.0
176
     1
 90
        0
176
     1
 62
    18
420
        0
176
     1
 90
       50
176
     1
 90
        3
176
     1
 62
     5
420
      255
176
     1
290
     0
176
     1
 90
       50
176
     1
 90
       50
176
     1
 90
       50
176
     1
290
     0
176
     1
 90
       50
176
     1
 62
   256
176
     0
 40
1.0
176
     0
 90
        2
176
     1
  1
strokes_ogs.tif
176
     1
290
     0
176
     1
 40
1.0
176
     1
 40
1.0
176
     1
  0
VISUALSTYLE
  5
9A
102
{ACAD_REACTORS
330
99
102
}
330
99
100
AcDbVisualStyle
  2
Flat
 70
     0
177
     3
291
     1
 70
    58
 90
        2
176
     1
 90
        1
176
     1
 90
        1
176
     1
 90
        2
176
     1
 40
0.6
176
     1
 40
30.0
176
     1
 62
     7
420
 16777215
176
     1
 90
        0
176
     1
 90
        0
176
     1
 62
     7
176
     1
 62
   257
176
     1
 90
        1
176
     1
 90
        1
176
     1
 40
1.0
176
     1
 90
        8
176
     1
 62
     7
176
     1
 40
1.0
176
     1
 90
        1
176
     1
 90
        6
176
     1
 90
        2
176
     1
 62
     7
176
     1
 90
        5
176
     1
 90
        0
176
     1
 90
        0
176
     1
290
     0
176
     1
 90
       13
176
     1
 40
0.0
176
     1
 90
        0
176
     1
290
     0
176
     1
290
     1
176
     1
290
     1
176
     1
290
     0
176
     1
290
     0
176
     1
290
     0
176
     1
290
     0
176
     1
290
     0
176
     1
290
     0
176
     1
 90
       50
176
     1
 40
0.0
176
     1
 40
1.0
176
     1
 90
        0
176
     1
 62
    18
420
        0
176
     1
 90
       50
176
     1
 90
        3
176
     1
 62
     5
420
      255
176
     1
290
     0
176
     1
 90
       50
176
     1
 90
       50
176
     1
 90
       50
176
     1
290
     0
176
     1
 90
       50
176
     1
 62
   256
176
     0
 40
1.0
176
     0
 90
        2
176
     1
  1
strokes_ogs.tif
176
     1
290
     0
176
     1
 40
1.0
176
     1
 40
1.0
176
     1
  0
VISUALSTYLE
  5
9B
102
{ACAD_REACTORS
330
99
102
}
330
99
100
AcDbVisualStyle
  2
FlatWithEdges
 70
     1
177
     3
291
     1
 70
    58
 90
        2
176
     1
 90
        1
176
     1
 90
        1
176
     1
 90
        2
176
     1
 40
0.6
176
     1
 40
30.0
176
     1
 62
     7
420
 16777215
176
     1
 90
        1
176
     1
 90
        0
176
     1
 62
     7
176
     1
 62
   257
176
     1
 90
        1
176
     1
 90
        1
176
     1
 40
1.0
176
     1
 90
        0
176
     1
 62
   257
176
     1
 40
1.0
176
     1
 90
        1
176
     1
 90
        6
176
     1
 90
        2
176
     1
 62
     7
176
     1
 90
        5
176
     1
 90
        0
176
     1
 90
        0
176
     1
290
     0
176
     1
 90
       13
176
     1
 40
0.0
176
     1
 90
        0
176
     1
290
     0
176
     1
290
     1
176
     1
290
     1
176
     1
290
     0
176
     1
290
     0
176
     1
290
     0
176
     1
290
     0
176
     1
290
     0
176
     1
290
     0
176
     1
 90
       50
176
     1
 40
0.0
176
     1
 40
1.0
176
     1
 90
        0
176
     1
 62
    18
420
        0
176
     1
 90
       50
176
     1
 90
        3
176
     1
 62
     5
420
      255
176
     1
290
     0
176
     1
 90
       50
176
     1
 90
       50
176
     1
 90
       50
176
     1
290
     0
176
     1
 90
       50
176
     1
 62
   256
176
     0
 40
1.0
176
     0
 90
        2
176
     1
  1
strokes_ogs.tif
176
     1
290
     0
176
     1
 40
1.0
176
     1
 40
1.0
176
     1
  0
VISUALSTYLE
  5
9C
102
{ACAD_REACTORS
330
99
102
}
330
99
100
AcDbVisualStyle
  2
Gouraud
 70
     2
177
     3
291
     1
 70
    58
 90
        2
176
     1
 90
        2
176
     1
 90
        1
176
     1
 90
        2
176
     1
 40
0.6
176
     1
 40
30.0
176
     1
 62
     7
420
 16777215
176
     1
 90
        0
176
     1
 90
        0
176
     1
 62
     7
176
     1
 62
   257
176
     1
 90
        1
176
     1
 90
        1
176
     1
 40
1.0
176
     1
 90
        0
176
     1
 62
     7
176
     1
 40
1.0
176
     1
 90
        1
176
     1
 90
        6
176
     1
 90
        2
176
     1
 62
     7
176
     1
 90
        5
176
     1
 90
        0
176
     1
 90
        0
176
     1
290
     0
176
     1
 90
       13
176
     1
 40
0.0
176
     1
 90
        0
176
     1
290
     0
176
     1
290
     1
176
     1
290
     1
176
     1
290
     0
176
     1
290
     0
176
     1
290
     0
176
     1
290
     0
176
     1
290
     0
176
     1
290
     0
176
     1
 90
       50
176
     1
 40
0.0
176
     1
 40
1.0
176
     1
 90
        0
176
     1
 62
    18
420
        0
176
     1
 90
       50
176
     1
 90
        3
176
     1
 62
     5
420
      255
176
     1
290
     0
176
     1
 90
       50
176
     1
 90
       50
176
     1
 90
       50
176
     1
290
     0
176
     1
 90
       50
176
     1
 62
   256
176
     0
 40
1.0
176
     0
 90
        2
176
     1
  1
strokes_ogs.tif
176
     1
290
     0
176
     1
 40
1.0
176
     1
 40
1.0
176
     1
  0
VISUALSTYLE
  5
9D
102
{ACAD_REACTORS
330
99
102
}
330
99
100
AcDbVisualStyle
  2
GouraudWithEdges
 70
     3
177
     3
291
     1
 70
    58
 90
        2
176
     1
 90
        2
176
     1
 90
        1
176
     1
 90
        2
176
     1
 40
0.6
176
     1
 40
30.0
176
     1
 62
     7
420
 16777215
176
     1
 90
        1
176
     1
 90
        0
176
     1
 62
     7
176
     1
 62
   257
176
     1
 90
        1
176
     1
 90
        1
176
     1
 40
1.0
176
     1
 90
        0
176
     1
 62
   257
176
     1
 40
1.0
176
     1
 90
        1
176
     1
 90
        6
176
     1
 90
        2
176
     1
 62
     7
176
     1
 90
        5
176
     1
 90
        0
176
     1
 90
        0
176
     1
290
     0
176
     1
 90
       13
176
     1
 40
0.0
176
     1
 90
        0
176
     1
290
     0
176
     1
290
     1
176
     1
290
     1
176
     1
290
     0
176
     1
290
     0
176
     1
290
     0
176
     1
290
     0
176
     1
290
     0
176
     1
290
     0
176
     1
 90
       50
176
     1
 40
0.0
176
     1
 40
1.0
176
     1
 90
        0
176
     1
 62
    18
420
        0
176
     1
 90
       50
176
     1
 90
        3
176
     1
 62
     5
420
      255
176
     1
290
     0
176
     1
 90
       50
176
     1
 90
       50
176
     1
 90
       50
176
     1
290
     0
176
     1
 90
       50
176
     1
 62
   256
176
     0
 40
1.0
176
     0
 90
        2
176
     1
  1
strokes_ogs.tif
176
     1
290
     0
176
     1
 40
1.0
176
     1
 40
1.0
176
     1
  0
VISUALSTYLE
  5
A1
102
{ACAD_REACTORS
330
99
102
}
330
99
100
AcDbVisualStyle
  2
Hidden
 70
     6
177
     3
291
     0
 70
    58
 90
        1
176
     1
 90
        2
176
     1
 90
        2
176
     1
 90
        0
176
     1
 40
0.6
176
     1
 40
30.0
176
     1
 62
     7
420
 16777215
176
     1
 90
        2
176
     1
 90
        2
176
     1
 62
     7
176
     1
 62
   257
176
     1
 90
        2
176
     1
 90
        1
176
     1
 40
40.0
176
     1
 90
        0
176
     1
 62
   257
176
     1
 40
1.0
176
     1
 90
        1
176
     1
 90
        6
176
     1
 90
        2
176
     1
 62
     7
176
     1
 90
        3
176
     1
 90
        0
176
     1
 90
        0
176
     1
290
     0
176
     1
 90
        1
176
     1
 40
0.0
176
     1
 90
        0
176
     1
290
     0
176
     1
290
     1
176
     1
290
     1
176
     1
290
     0
176
     1
290
     0
176
     1
290
     0
176
     1
290
     0
176
     1
290
     0
176
     1
290
     0
176
     1
 90
       50
176
     1
 40
0.0
176
     1
 40
1.0
176
     1
 90
        0
176
     1
 62
    18
420
        0
176
     1
 90
       50
176
     1
 90
        3
176
     1
 62
     5
420
      255
176
     1
290
     0
176
     1
 90
       50
176
     1
 90
       50
176
     1
 90
       50
176
     1
290
     0
176
     1
 90
       50
176
     1
 62
   256
176
     0
 40
1.0
176
     0
 90
        2
176
     1
  1
strokes_ogs.tif
176
     1
290
     0
176
     1
 40
1.0
176
     1
 40
1.0
176
     1
  0
VISUALSTYLE
  5
173
102
{ACAD_REACTORS
330
99
102
}
330
99
100
AcDbVisualStyle
  2
JitterOff
 70
    20
177
     3
291
     1
 70
    58
 90
        2
176
     0
 90
        2
176
     0
 90
        0
176
     0
 90
        0
176
     0
 40
0.6
176
     0
 40
30.0
176
     0
 62
     7
420
 16777215
176
     0
 90
        1
176
     0
 90
        4
176
     0
 62
     7
176
     0
 62
   257
176
     0
 90
        1
176
     0
 90
        1
176
     0
 40
1.0
176
     0
 90
       10
176
     2
 62
     7
176
     0
 40
1.0
176
     0
 90
        1
176
     0
 90
        6
176
     0
 90
        2
176
     0
 62
     7
176
     0
 90
        5
176
     0
 90
        0
176
     0
 90
        0
176
     0
290
     0
176
     0
 90
        1
176
     0
 40
0.0
176
     0
 90
        0
176
     0
290
     0
176
     1
290
     1
176
     1
290
     1
176
     1
290
     0
176
     1
290
     0
176
     1
290
     0
176
     1
290
     0
176
     1
290
     0
176
     1
290
     0
176
     1
 90
       50
176
     1
 40
0.0
176
     1
 40
1.0
176
     1
 90
        0
176
     1
 62
    18
420
        0
176
     1
 90
       50
176
     1
 90
        3
176
     1
 62
     5
420
      255
176
     1
290
     0
176
     1
 90
       50
176
     1
 90
       50
176
     1
 90
       50
176
     1
290
     0
176
     1
 90
       50
176
     1
 62
   256
176
     0
 40
1.0
176
     0
 90
        2
176
     1
  1
strokes_ogs.tif
176
     1
290
     0
176
     1
 40
1.0
176
     1
 40
1.0
176
     1
  0
VISUALSTYLE
  5
A7
102
{ACAD_REACTORS
330
99
102
}
330
99
100
AcDbVisualStyle
  2
Linepattern
 70
    14
177
     3
291
     1
 70
    58
 90
        2
176
     1
 90
        2
176
     1
 90
        1
176
     1
 90
        0
176
     1
 40
0.6
176
     1
 40
30.0
176
     1
 62
     7
420
 16777215
176
     1
 90
        1
176
     1
 90
        4
176
     1
 62
     7
176
     1
 62
   257
176
     1
 90
        7
176
     1
 90
        7
176
     1
 40
1.0
176
     1
 90
        8
176
     1
 62
     7
176
     1
 40
1.0
176
     1
 90
        1
176
     1
 90
        6
176
     1
 90
        2
176
     1
 62
     7
176
     1
 90
        5
176
     1
 90
        0
176
     1
 90
        0
176
     1
290
     0
176
     1
 90
        1
176
     1
 40
0.0
176
     1
 90
        0
176
     1
290
     0
176
     1
290
     1
176
     1
290
     1
176
     1
290
     0
176
     1
290
     0
176
     1
290
     0
176
     1
290
     0
176
     1
290
     0
176
     1
290
     0
176
     1
 90
       50
176
     1
 40
0.0
176
     1
 40
1.0
176
     1
 90
        0
176
     1
 62
    18
420
        0
176
     1
 90
       50
176
     1
 90
        3
176
     1
 62
     5
420
      255
176
     1
290
     0
176
     1
 90
       50
176
     1
 90
       50
176
     1
 90
       50
176
     1
290
     0
176
     1
 90
       50
176
     1
 62
   256
176
     0
 40
1.0
176
     0
 90
        2
176
     1
  1
strokes_ogs.tif
176
     1
290
     0
176
     1
 40
1.0
176
     1
 40
1.0
176
     1
  0
VISUALSTYLE
  5
174
102
{ACAD_REACTORS
330
99
102
}
330
99
100
AcDbVisualStyle
  2
OverhangOff
 70
    21
177
     3
291
     1
 70
    58
 90
        2
176
     0
 90
        2
176
     0
 90
        0
176
     0
 90
        0
176
     0
 40
0.6
176
     0
 40
30.0
176
     0
 62
     7
420
 16777215
176
     0
 90
        1
176
     0
 90
        4
176
     0
 62
     7
176
     0
 62
   257
176
     0
 90
        1
176
     0
 90
        1
176
     0
 40
1.0
176
     0
 90
        9
176
     2
 62
     7
176
     0
 40
1.0
176
     0
 90
        1
176
     0
 90
        6
176
     0
 90
        2
176
     0
 62
     7
176
     0
 90
        5
176
     0
 90
        0
176
     0
 90
        0
176
     0
290
     0
176
     0
 90
        1
176
     0
 40
0.0
176
     0
 90
        0
176
     0
290
     0
176
     1
290
     1
176
     1
290
     1
176
     1
290
     0
176
     1
290
     0
176
     1
290
     0
176
     1
290
     0
176
     1
290
     0
176
     1
290
     0
176
     1
 90
       50
176
     1
 40
0.0
176
     1
 40
1.0
176
     1
 90
        0
176
     1
 62
    18
420
        0
176
     1
 90
       50
176
     1
 90
        3
176
     1
 62
     5
420
      255
176
     1
290
     0
176
     1
 90
       50
176
     1
 90
       50
176
     1
 90
       50
176
     1
290
     0
176
     1
 90
       50
176
     1
 62
   256
176
     0
 40
1.0
176
     0
 90
        2
176
     1
  1
strokes_ogs.tif
176
     1
290
     0
176
     1
 40
1.0
176
     1
 40
1.0
176
     1
  0
VISUALSTYLE
  5
A3
102
{ACAD_REACTORS
330
99
102
}
330
99
100
AcDbVisualStyle
  2
Realistic
 70
     8
177
     3
291
     0
 70
    58
 90
        2
176
     1
 90
        3
176
     1
 90
        0
176
     1
 90
        2
176
     1
 40
0.6
176
     1
 40
30.0
176
     1
 62
     7
420
 16777215
176
     1
 90
        0
176
     1
 90
        0
176
     1
 62
     7
176
     1
 62
   257
176
     1
 90
        1
176
     1
 90
        1
176
     1
 40
1.0
176
     1
 90
        8
176
     1
 62
   257
176
     1
 40
1.0
176
     1
 90
        1
176
     1
 90
        6
176
     1
 90
        2
176
     1
 62
     7
176
     1
 90
        3
176
     1
 90
        0
176
     1
 90
        0
176
     1
290
     0
176
     1
 90
       13
176
     1
 40
0.0
176
     1
 90
        0
176
     1
290
     0
176
     1
290
     1
176
     1
290
     1
176
     1
290
     0
176
     1
290
     0
176
     1
290
     0
176
     1
290
     0
176
     1
290
     0
176
     1
290
     0
176
     1
 90
       50
176
     1
 40
0.0
176
     1
 40
1.0
176
     1
 90
        0
176
     1
 62
    18
420
        0
176
     1
 90
       50
176
     1
 90
        3
176
     1
 62
     5
420
      255
176
     1
290
     0
176
     1
 90
       50
176
     1
 90
       50
176
     1
 90
       50
176
     1
290
     0
176
     1
 90
       50
176
     1
 62
   256
176
     0
 40
1.0
176
     0
 90
        2
176
     1
  1
strokes_ogs.tif
176
     1
290
     0
176
     1
 40
1.0
176
     1
 40
1.0
176
     1
  0
VISUALSTYLE
  5
182
102
{ACAD_REACTORS
330
99
102
}
330
99
100
AcDbVisualStyle
  2
Shaded
 70
    27
177
     3
291
     0
 70
    58
 90
        2
176
     1
 90
        2
176
     1
 90
        1
176
     1
 90
        2
176
     1
 40
0.6
176
     1
 40
30.0
176
     1
 62
     7
420
 16777215
176
     1
 90
        0
176
     1
 90
        4
176
     1
 62
     7
176
     1
 62
   257
176
     1
 90
        1
176
     1
 90
        1
176
     1
 40
1.0
176
     1
 90
        8
176
     1
 62
   257
176
     1
 40
1.0
176
     1
 90
        1
176
     1
 90
        6
176
     1
 90
        2
176
     1
 62
     8
420
  7895160
176
     1
 90
        3
176
     1
 90
        0
176
     1
 90
        0
176
     1
290
     0
176
     1
 90
        5
176
     1
 40
0.0
176
     1
 90
        0
176
     1
290
     0
176
     1
290
     1
176
     1
290
     1
176
     1
290
     0
176
     1
290
     0
176
     1
290
     0
176
     1
290
     0
176
     1
290
     0
176
     1
290
     0
176
     1
 90
       50
176
     1
 40
0.0
176
     1
 40
1.0
176
     1
 90
        0
176
     1
 62
    18
420
        0
176
     1
 90
       50
176
     1
 90
        3
176
     1
 62
     5
420
      255
176
     1
290
     0
176
     1
 90
       50
176
     1
 90
       50
176
     1
 90
       50
176
     1
290
     0
176
     1
 90
       50
176
     1
 62
   256
176
     0
 40
1.0
176
     0
 90
        2
176
     1
  1
strokes_ogs.tif
176
     1
290
     0
176
     1
 40
1.0
176
     1
 40
1.0
176
     1
  0
VISUALSTYLE
  5
181
102
{ACAD_REACTORS
330
99
102
}
330
99
100
AcDbVisualStyle
  2
Shaded with edges
 70
    26
177
     3
291
     0
 70
    58
 90
        2
176
     1
 90
        2
176
     1
 90
        1
176
     1
 90
        2
176
     1
 40
0.6
176
     1
 40
30.0
176
     1
 62
     7
420
 16777215
176
     1
 90
        1
176
     1
 90
        2
176
     1
 62
     7
176
     1
 62
   257
176
     1
 90
        2
176
     1
 90
        1
176
     1
 40
1.0
176
     1
 90
        8
176
     1
 62
   257
176
     1
 40
1.0
176
     1
 90
        1
176
     1
 90
        6
176
     1
 90
        2
176
     1
 62
     7
176
     1
 90
        3
176
     1
 90
        0
176
     1
 90
        0
176
     1
290
     0
176
     1
 90
        5
176
     1
 40
0.0
176
     1
 90
        0
176
     1
290
     0
176
     1
290
     1
176
     1
290
     1
176
     1
290
     0
176
     1
290
     0
176
     1
290
     0
176
     1
290
     0
176
     1
290
     0
176
     1
290
     0
176
     1
 90
       50
176
     1
 40
0.0
176
     1
 40
1.0
176
     1
 90
        0
176
     1
 62
    18
420
        0
176
     1
 90
       50
176
     1
 90
        3
176
     1
 62
     5
420
      255
176
     1
290
     0
176
     1
 90
       50
176
     1
 90
       50
176
     1
 90
       50
176
     1
290
     0
176
     1
 90
       50
176
     1
 62
   256
176
     0
 40
1.0
176
     0
 90
        2
176
     1
  1
strokes_ogs.tif
176
     1
290
     0
176
     1
 40
1.0
176
     1
 40
1.0
176
     1
  0
VISUALSTYLE
  5
17E
102
{ACAD_REACTORS
330
99
102
}
330
99
100
AcDbVisualStyle
  2
Shades of Gray
 70
    23
177
     3
291
     0
 70
    58
 90
        2
176
     1
 90
        2
176
     1
 90
        3
176
     1
 90
        0
176
     1
 40
0.6
176
     1
 40
30.0
176
     1
 62
     7
420
 16777215
176
     1
 90
        2
176
     1
 90
        2
176
     1
 62
     7
176
     1
 62
     7
176
     1
 90
        1
176
     1
 90
        1
176
     1
 40
40.0
176
     1
 90
        8
176
     1
 62
     7
176
     1
 40
1.0
176
     1
 90
        1
176
     1
 90
        6
176
     1
 90
        2
176
     1
 62
     7
176
     1
 90
        3
176
     1
 90
        0
176
     1
 90
        0
176
     1
290
     0
176
     1
 90
        1
176
     1
 40
0.0
176
     1
 90
        0
176
     1
290
     0
176
     1
290
     1
176
     1
290
     1
176
     1
290
     0
176
     1
290
     0
176
     1
290
     0
176
     1
290
     0
176
     1
290
     0
176
     1
290
     0
176
     1
 90
       50
176
     1
 40
0.0
176
     1
 40
1.0
176
     1
 90
        0
176
     1
 62
    18
420
        0
176
     1
 90
       50
176
     1
 90
        3
176
     1
 62
     5
420
      255
176
     1
290
     0
176
     1
 90
       50
176
     1
 90
       50
176
     1
 90
       50
176
     1
290
     0
176
     1
 90
       50
176
     1
 62
   256
176
     0
 40
1.0
176
     0
 90
        2
176
     1
  1
strokes_ogs.tif
176
     1
290
     0
176
     1
 40
1.0
176
     1
 40
1.0
176
     1
  0
VISUALSTYLE
  5
17F
102
{ACAD_REACTORS
330
99
102
}
330
99
100
AcDbVisualStyle
  2
Sketchy
 70
    24
177
     3
291
     0
 70
    58
 90
        1
176
     1
 90
        2
176
     1
 90
        2
176
     1
 90
        0
176
     1
 40
0.6
176
     1
 40
30.0
176
     1
 62
     7
420
 16777215
176
     1
 90
        2
176
     1
 90
        2
176
     1
 62
     7
176
     1
 62
     7
176
     1
 90
        1
176
     1
 90
        1
176
     1
 40
40.0
176
     1
 90
       11
176
     1
 62
     7
176
     1
 40
1.0
176
     1
 90
        1
176
     1
 90
        6
176
     1
 90
        2
176
     1
 62
     7
176
     1
 90
        6
176
     1
 90
        0
176
     1
 90
        0
176
     1
290
     0
176
     1
 90
        1
176
     1
 40
0.0
176
     1
 90
        0
176
     1
290
     0
176
     1
290
     1
176
     1
290
     1
176
     1
290
     0
176
     1
290
     0
176
     1
290
     0
176
     1
290
     0
176
     1
290
     0
176
     1
290
     0
176
     1
 90
       50
176
     1
 40
0.0
176
     1
 40
1.0
176
     1
 90
        0
176
     1
 62
    18
420
        0
176
     1
 90
       50
176
     1
 90
        3
176
     1
 62
     5
420
      255
176
     1
290
     0
176
     1
 90
       50
176
     1
 90
       50
176
     1
 90
       50
176
     1
290
     0
176
     1
 90
       50
176
     1
 62
   256
176
     0
 40
1.0
176
     0
 90
        2
176
     1
  1
strokes_ogs.tif
176
     1
290
     0
176
     1
 40
1.0
176
     1
 40
1.0
176
     1
  0
VISUALSTYLE
  5
A6
102
{ACAD_REACTORS
330
99
102
}
330
99
100
AcDbVisualStyle
  2
Thicken
 70
    13
177
     3
291
     1
 70
    58
 90
        2
176
     1
 90
        2
176
     1
 90
        1
176
     1
 90
        0
176
     1
 40
0.6
176
     1
 40
30.0
176
     1
 62
     7
420
 16777215
176
     1
 90
        1
176
     1
 90
        4
176
     1
 62
     7
176
     1
 62
   257
176
     1
 90
        1
176
     1
 90
        1
176
     1
 40
1.0
176
     1
 90
       12
176
     1
 62
     7
176
     1
 40
1.0
176
     1
 90
        1
176
     1
 90
        6
176
     1
 90
        2
176
     1
 62
     7
176
     1
 90
        5
176
     1
 90
        0
176
     1
 90
        0
176
     1
290
     0
176
     1
 90
        1
176
     1
 40
0.0
176
     1
 90
        0
176
     1
290
     0
176
     1
290
     1
176
     1
290
     1
176
     1
290
     0
176
     1
290
     0
176
     1
290
     0
176
     1
290
     0
176
     1
290
     0
176
     1
290
     0
176
     1
 90
       50
176
     1
 40
0.0
176
     1
 40
1.0
176
     1
 90
        0
176
     1
 62
    18
420
        0
176
     1
 90
       50
176
     1
 90
        3
176
     1
 62
     5
420
      255
176
     1
290
     0
176
     1
 90
       50
176
     1
 90
       50
176
     1
 90
       50
176
     1
290
     0
176
     1
 90
       50
176
     1
 62
   256
176
     0
 40
1.0
176
     0
 90
        2
176
     1
  1
strokes_ogs.tif
176
     1
290
     0
176
     1
 40
1.0
176
     1
 40
1.0
176
     1
  0
VISUALSTYLE
  5
A0
102
{ACAD_REACTORS
330
99
102
}
330
99
100
AcDbVisualStyle
  2
Wireframe
 70
     5
177
     3
291
     0
 70
    58
 90
        0
176
     1
 90
        2
176
     1
 90
        0
176
     1
 90
        0
176
     1
 40
0.6
176
     1
 40
30.0
176
     1
 62
     7
420
 16777215
176
     1
 90
        1
176
     1
 90
        4
176
     1
 62
     7
176
     1
 62
   257
176
     1
 90
        1
176
     1
 90
        1
176
     1
 40
1.0
176
     1
 90
        0
176
     1
 62
   257
176
     1
 40
1.0
176
     1
 90
        1
176
     1
 90
        6
176
     1
 90
        2
176
     1
 62
     7
176
     1
 90
        3
176
     1
 90
        0
176
     1
 90
        0
176
     1
290
     0
176
     1
 90
        1
176
     1
 40
0.0
176
     1
 90
        0
176
     1
290
     0
176
     1
290
     1
176
     1
290
     1
176
     1
290
     0
176
     1
290
     0
176
     1
290
     0
176
     1
290
     0
176
     1
290
     0
176
     1
290
     0
176
     1
 90
       50
176
     1
 40
0.0
176
     1
 40
1.0
176
     1
 90
        0
176
     1
 62
    18
420
        0
176
     1
 90
       50
176
     1
 90
        3
176
     1
 62
     5
420
      255
176
     1
290
     0
176
     1
 90
       50
176
     1
 90
       50
176
     1
 90
       50
176
     1
290
     0
176
     1
 90
       50
176
     1
 62
   256
176
     0
 40
1.0
176
     0
 90
        2
176
     1
  1
strokes_ogs.tif
176
     1
290
     0
176
     1
 40
1.0
176
     1
 40
1.0
176
     1
  0
VISUALSTYLE
  5
180
102
{ACAD_REACTORS
330
99
102
}
330
99
100
AcDbVisualStyle
  2
X-Ray
 70
    25
177
     3
291
     0
 70
    58
 90
        2
176
     1
 90
        2
176
     1
 90
        1
176
     1
 90
        1
176
     1
 40
0.5
176
     1
 40
30.0
176
     1
 62
     7
420
 16777215
176
     1
 90
        1
176
     1
 90
        0
176
     1
 62
     7
176
     1
 62
   257
176
     1
 90
        1
176
     1
 90
        1
176
     1
 40
1.0
176
     1
 90
        8
176
     1
 62
     7
176
     1
 40
1.0
176
     1
 90
        1
176
     1
 90
        6
176
     1
 90
        2
176
     1
 62
     7
176
     1
 90
        3
176
     1
 90
        0
176
     1
 90
        0
176
     1
290
     0
176
     1
 90
       13
176
     1
 40
0.0
176
     1
 90
        0
176
     1
290
     0
176
     1
290
     1
176
     1
290
     1
176
     1
290
     0
176
     1
290
     0
176
     1
290
     0
176
     1
290
     0
176
     1
290
     0
176
     1
290
     0
176
     1
 90
       50
176
     1
 40
0.0
176
     1
 40
1.0
176
     1
 90
        0
176
     1
 62
    18
420
        0
176
     1
 90
       50
176
     1
 90
        3
176
     1
 62
     5
420
      255
176
     1
290
     0
176
     1
 90
       50
176
     1
 90
       50
176
     1
 90
       50
176
     1
290
     0
176
     1
 90
       50
176
     1
 62
   256
176
     0
 40
1.0
176
     0
 90
        2
176
     1
  1
strokes_ogs.tif
176
     1
290
     0
176
     1
 40
1.0
176
     1
 40
1.0
176
     1
  0
DICTIONARYVAR
  5
F0
102
{ACAD_REACTORS
330
66
102
}
330
66
100
DictionaryVariables
280
     0
  1
1:1
  0
DICTIONARYVAR
  5
EF
102
{ACAD_REACTORS
330
66
102
}
330
66
100
DictionaryVariables
280
     0
  1
STANDARD
  0
DICTIONARYVAR
  5
89
102
{ACAD_REACTORS
330
66
102
}
330
66
100
DictionaryVariables
280
     0
  1
STANDARD
  0
DICTIONARYVAR
  5
1B7
102
{ACAD_REACTORS
330
66
102
}
330
66
100
DictionaryVariables
280
     0
  1
ASME Y14.35 - 1987
  0
DICTIONARYVAR
  5
1B8
102
{ACAD_REACTORS
330
66
102
}
330
66
100
DictionaryVariables
280
     0
  1
ASME Y14.3 - 2003
  0
DICTIONARYVAR
  5
67
102
{ACAD_REACTORS
330
66
102
}
330
66
100
DictionaryVariables
280
     0
  1
2
  0
DICTIONARYVAR
  5
A9C
102
{ACAD_REACTORS
330
66
102
}
330
66
100
DictionaryVariables
280
     0
  1
4
  0
DICTIONARYVAR
  5
6B
102
{ACAD_REACTORS
330
66
102
}
330
66
100
DictionaryVariables
280
     0
  1
1
  0
DICTIONARYVAR
  5
15C6
102
{ACAD_REACTORS
330
66
102
}
330
66
100
DictionaryVariables
280
     0
  1
BYLAYER
  0
DICTIONARYVAR
  5
15C4
102
{ACAD_REACTORS
330
66
102
}
330
66
100
DictionaryVariables
280
     0
  1
MORTAIRVENT
  0
DICTIONARYVAR
  5
15C5
102
{ACAD_REACTORS
330
66
102
}
330
66
100
DictionaryVariables
280
     0
  1
ByLayer
  0
DICTIONARYVAR
  5
14D
102
{ACAD_REACTORS
330
66
102
}
330
66
100
DictionaryVariables
280
     0
  1
0
  0
DICTIONARYVAR
  5
14E
102
{ACAD_REACTORS
330
66
102
}
330
66
100
DictionaryVariables
280
     0
  1
0
  0
ACAD_PROXY_OBJECT
  5
23B
102
{ACAD_REACTORS
330
23A
102
}
330
23A
100
AcDbProxyObject
 90
      499
 91
      541
 71
    33
 97
      157
 70
     0
162
                 0
161
                84
310
90100057356C1DCF406AAC
 94
        0
  0
DICTIONARY
  5
23C
102
{ACAD_REACTORS
330
23A
102
}
330
23A
100
AcDbDictionary
281
     1
  3
ANSI
350
23D
  0
ACAD_PROXY_OBJECT
  5
218
330
0
100
AcDbProxyObject
 90
      499
 91
      522
 71
    33
 97
      157
 70
     0
162
               234
311
43904010C01340114014C016401340108013C0130014C01240168011400C
161
                34
310
000101420C
330
215
 94
        0
  0
ACAD_PROXY_OBJECT
  5
228
330
0
100
AcDbProxyObject
 90
      499
 91
      533
 71
    33
 97
      157
 70
     0
162
               212
311
421040134010C01540148014C01500110010441004E0053004900C
161
                32
310
0001010100
330
215
 94
        0
  0
ACAD_PROXY_OBJECT
  5
22B
330
0
100
AcDbProxyObject
 90
      499
 91
      533
 71
    33
 97
      157
 70
     0
162
               276
311
431040104010C013C01340140011001180138010401340114010443004F004D005000C
161
                32
310
0001010100
330
215
 94
        0
  0
ACAD_PROXY_OBJECT
  5
22C
330
0
100
AcDbProxyObject
 90
      499
 91
      533
 71
    33
 97
      157
 70
     0
162
               340
311
4390401040118013C0130011001140148011001180138010401340114010646006F006C00640065007200C
161
                32
310
0001010100
330
215
 94
        0
  0
ACAD_PROXY_OBJECT
  5
22D
330
0
100
AcDbProxyObject
 90
      499
 91
      533
 71
    33
 97
      157
 70
     0
162
               260
311
431040104010401380138013C01100118013801040134011401035F0041005600C
161
                32
310
0001010100
330
215
 94
        0
  0
ACAD_PROXY_OBJECT
  5
22E
330
0
100
AcDbProxyObject
 90
      499
 91
      533
 71
    33
 97
      157
 70
     0
162
               756
311
439040104010C013C01340140015801240114015C01300124014C0150012054006F0070000A00460072006F006E0074000A00520069006700680074000A004C006500660074000A0042006F00740074006F006D000A004100750078003100C
161
                32
310
0001010100
330
215
 94
        0
  0
ACAD_PROXY_OBJECT
  5
22F
330
0
100
AcDbProxyObject
 90
      499
 91
      522
 71
    33
 97
      157
 70
     0
162
               234
311
439040134014C014C0150014801040130015C01040164014C013C013800C
161
                26
310
0001018C
330
215
 94
        0
  0
ACAD_PROXY_OBJECT
  5
234
330
0
100
AcDbProxyObject
 90
      499
 91
      536
 71
    33
 97
      157
 70
     0
162
                 0
161
                32
310
0001000000
330
215
340
231
330
235
330
231
 94
        0
  0
ACAD_PROXY_OBJECT
  5
235
330
0
100
AcDbProxyObject
 90
      499
 91
      537
 71
    33
 97
      157
 70
     0
162
               154
311
4255C010401300130008001080104014C011400C
161
                80
310
0001014140155005540004
330
215
330
234
330
0
 94
        0
  0
ACAD_PROXY_OBJECT
  5
236
330
0
100
AcDbProxyObject
 90
      499
 91
      538
 71
    33
 97
      157
 70
     0
162
                 0
161
               178
310
000100AAAAAAA5D2ACC20BF336D2A3E7DC77465FFF678C
330
215
330
235
 94
        0
  0
ACAD_PROXY_OBJECT
  5
237
330
0
100
AcDbProxyObject
 90
      499
 91
      539
 71
    33
 97
      157
 70
     0
162
                 0
161
               108
310
000190140A000000000000AAAAAC
330
215
330
238
330
238
330
238
330
238
330
238
330
0
 94
        0
  0
ACAD_PROXY_OBJECT
  5
238
330
0
100
AcDbProxyObject
 90
      499
 91
      540
 71
    33
 97
      157
 70
     0
162
                 0
161
                51
310
00010000AAAA8C
330
215
330
237
330
235
 94
        0
  0
DICTIONARY
  5
20F
102
{ACAD_REACTORS
330
20E
102
}
330
20E
100
AcDbDictionary
281
     1
  3
DWGSETTINGS
350
210
  3
Shaft
350
3D9
  3
TRANSSETTINGS
350
211
  0
ACAD_PROXY_OBJECT
  5
24F
102
{ACAD_REACTORS
330
20E
102
}
330
20E
100
AcDbProxyObject
 90
      499
 91
      558
 71
    33
 97
      157
 70
     0
162
             17838
311
404C0010441004D005F0030009013100411040134017C00C402404C8010441004D005F0032009013300411040134017C00CC02404D0010441004D005F0034009013500411040134017C00D402404D8010441004D005F0036009013700411040134017C00DC02404E0010441004D005F0038009013900411040134017C00E40
311
2408C80104010541004D005F003100300090234004100415040134017C00C400C402409240140010541004D005F003100320090230004E00415040134017C00C0013802408C40138010541004D005F0031004E0090232004E00415040134017C00C8013802408CC0138010541004D005F0033004E0090234004E0041504013
311
4017C00D0013802408D40138010541004D005F0035004E0090236004E00415040134017C00D8013802408DC0138010541004D005F0037004E0090238004E00415040134017C00E0013802408E40138010541004D005F0039004E00903320041004E00419040134017C00C400C001380240CD001040138010641004D005F003
311
10031004E00903490050004E00419040134017C00C400C80138024112C013001240138010541004D005F0043004C0090449004E0046004F00421040134017C01400104014801140118024154801040120013400D4010641004D005F0042004F0052009045600490045005700421040134017C015801240114015C014C02419
311
0801140120012401380110010641004D005F0049004E00560090554005200410049004C00415040134017C015001480240D2001240110010641004D005F00480049004400903560049005300419040134017C01580124014C024194001040148011001240134010941004D005F00500041005200440049004D009065200450
311
04600440049004D00425040134017C01480114011801100124013402430F401D001A401D001B001940080018801B001BC018C01AC010B7400690074006C006500200062006C006F0063006B009083D00610064006400720065007300730041D840190019001C8019401CC01CC02418F401B001BC019C01BC01CC01056C006F
311
0067006F0073009073D0042004F00520044004500520041908013C014801100114014802424F4015801240114015C0140013C014801500108560049004500570050004F005200540090A3D00760069006500770070006F00720074007300425D801A4019401DC01C001BC01C801D001CC02418F401CC018C018401B0019401
311
057300630061006C006500904420048004E005600404E40105420048004E00560053004190801140120012401380110010442004F00520032004154801040120013400D4010442004F00520033004154801040120013400D4010442004F00520035004154801040120013400D40104430041004C003200404D001044300410
311
04C003300404D00104430041004C003500404D00104430041004C003700404D00104430045004E004E00404DC0104430045004E005700404DC010443004C0049004E004112C013001240138010443004F004E003100404C0010443004F004E003200404C4010443004F004E003300404C8010443004F004E003400404C8010
311
44400450054004100404D001044400490041004700404D40104440049004C004900404D40104440049004D00500041940010401480110012401340104440049004D00520041948011401180110012401340104460045004D004E00404E00105460045004D0050004E00404E00105460045004D0053005000408D0010401054
311
60045004D0053005400408D001040105460045004D0056004E00404C80105460045004D0056005400404C801044800410054004300404E001044800490044004E00404CC01044800490044005700404CC010448004C0049004E00404D0010448004F0043004E00404DC010448004F0043005700404DC010449004E0046004F
311
004112401380118013C01044C00450041004400404D401064E005F00420048004E005600408E4013801064E005F0043004F004E003100408C0013801064E005F0043004F004E003200408C4013801064E005F0043004F004E003300408C8013801064E005F0043004F004E003400408C8013801064E005F00430045004E004
311
E00408DC013801064E005F00430045004E005700408DC013801064E005F00440049004C004900408D4013801064E005F004800410054004300408E0013801064E005F004800490044004E00408CC013801064E005F004800490044005700408CC013801064E005F004C00450041004400408D4013801064E005F004E004700
311
4900500040D240140013801064E005F005000480041004E0040CD00104013801064E005F00540043004F004E00408C0013801064E005F00540048004C004900408D0013801064E005F0054004C0045004E00408C0013801064E005F00560050004C00490040CC80104013801044E0047004900500040924014001045000410
311
04C0032004154801040120013400D40104500041004C0033004154801040120013400D40104500041004C0035004154801040120013400D401045000480041004E00408D00104010450004F0053004E00404D401045200430047004E00404DC01045200430047005700404DC01045300420052004B00404D00104530045004
311
3005400404D001045300590042003300404D401044D00530059004D00404D40104540043004F004E00404C00104540048004C004900404D0010454004900540032004154801040120013400D4010454004900540033004154801040120013400D4010454004900540035004154801040120013400D4010454004C0045004E0
311
0404C0010554005200410049004C004155001480104012401300104540052004C004900404D001045400580054003100404D801045400580054003200404D801045400580054003300404D801045400580054003500404D801045400580054003700404D8010456004900450057004115801240114015C0104560045004400
311
480040D20012401100104560045004400560040D580124014C0104560050004C004900408C8010401045A0049005A004100404D00104530050004C004900408C8010401013F008
161
              9460
310
425034AE01C00030C011E5C203800030C011E5C201400030C011E5C201800030C010FA00C00030C010FA00C00030C010FA00800030C011EA01000030C010FA00400030C010FA3F400030C0241201C00030C011EA00C00030C010FA01C00030C011E40A01C00030C011EA03800030C011EA01400030C011EA01800030C010FA
310
00C00030C010FA00C00030C010FA00800030C011EA01000030C010FA00400030C010FA3F400030C0241201C00030C011EA00C00030C010FA01C00030C011E40A00400030C010F42601000030C010F42E01C00030C011E42600400030C010F42E3F400030C0243600C00030C010F42601C00030C010F42601C00030C011E426
310
00C00030C010F42601000030C010F42600400030C010FA3E800030C00FDFFFFFFA3FC00030C00FDFFFFFFA3EC00030C00FDFFFFFFA01C00030C011E40A01C00030C011E40A01C00030C00FDFFFFFF409548000000C0003FFFFFFFE8000000C0003FFFFFFFE8010000C30043E8020000C30047A8000000C0003FFFFFFFE8000
310
000C0003FFFFFFFE8020000C30047A8070000C30047A81E0000C3004F28000000C0003FFFFFFFE8000000C0003FFFFFFFE8000000C0003FFFFFFFE8000000C0003FFFFFFFD038000000C0003FFFFFFFD038000000C0003FFFFFFFD038000000C0003FFFFFFFD038030000C30043E8000000C0003FFFFFFFE8000000C0003FF
310
FFFFFE8000000C0003FFFFFFFE8000000C0003FFFFFFFE8000000C0003FFFFFFFE8030000C3003FFFFFFFE8000000C0003FFFFFFFE8030000C30043E8000000C0003FFFFFFFE8030000C30043E8000000C0003FFFFFFFD018000000C0003FFFFFFFD038000000C0003FFFFFFFD038000000C0003FFFFFFFD018000000C0003
310
FFFFFFFE8000000C0003FFFFFFFE8000000C0003FFFFFFFE8000000C0003FFFFFFFE8000000C0003FFFFFFFE8000000C0003FFFFFFFD038000000C0003FFFFFFFD038000000C0003FFFFFFFD038000000C0003FFFFFFFD038000000C0003FFFFFFFE8000000C0003FFFFFFFE8000000C0003FFFFFFFE8000000C0003FFFFFF
310
FD018000000C0003FFFFFFFD038000000C0003FFFFFFFD038000000C0003FFFFFFFE8000000C0003FFFFFFFE8000000C0003FFFFFFFE8000000C0003FFFFFFFD038000000C0003FFFFFFFD018000000C0003FFFFFFFD038000000C0003FFFFFFFE8000000C0003FFFFFFFE8010000C3003FFFFFFFE8020000C3003FFFFFFFE
310
8070000C3003FFFFFFFE8000000C0003FFFFFFFE8000000C0003FFFFFFFE8000000C0003FFFFFFFE8000000C0003FFFFFFFE8070000C300479018000000C0003FFFFFFFD018020000C30047A8020000C3003FFFFFFFE8000000C0003FFFFFFFD038000000C0003FFFFFFFD018010000C30043E8020000C30047A8000000C00
310
03FFFFFFFE8000000C0003FFFFFFFD038000000C0003FFFFFFFE8000000C0003FFFFFFFD018030000C30043E8030000C30043E8000000C0003FFFFFFFE8070000C30047A81E0000C3004F28000000C0003FFFFFFFE8000000C0003FFFFFFFD028000000C0003FFFFFFFD028070000C30047A8000000C0003FFFFFFFD018070
310
000C30047AAAA3F400030C010A4391E4151E4091E4793C41D1E4110F4050F7F64190F40D0F80200C
340
16
340
16
340
16
340
21A
340
16
340
16
340
16
340
21C
340
16
340
16
340
21B
340
21B
340
16
340
16
340
16
340
16
340
21A
340
16
340
16
340
16
340
21C
340
16
340
16
340
21B
340
21B
340
16
340
253
340
16
340
16
340
16
340
16
340
16
340
21A
340
16
340
16
340
16
340
16
340
16
340
16
340
16
340
16
340
16
340
16
340
15
340
15
340
15
340
15
340
15
340
15
340
15
340
15
340
15
340
259
340
15
340
15
340
15
340
15
340
15
340
15
340
16
340
15
340
15
340
15
340
15
340
15
340
15
340
16
340
15
340
15
340
15
340
15
340
25A
340
15
340
15
340
259
340
15
340
15
340
15
340
15
340
15
340
15
340
15
340
15
340
259
340
15
340
15
340
15
340
25A
340
15
340
15
340
15
340
15
340
15
340
25A
340
15
340
15
340
15
340
16
340
16
340
16
340
15
340
15
340
259
340
15
340
15
340
15
340
15
340
15
340
15
340
25A
340
15
340
15
340
15
340
15
340
15
340
15
340
15
340
15
340
15
340
15
340
15
340
15
340
15
340
15
340
21B
340
25B
340
21B
 94
        0
  0
ACAD_PROXY_OBJECT
  5
40B
102
{ACAD_REACTORS
330
406
102
}
330
406
100
AcDbProxyObject
 90
      499
 91
      570
 71
    33
 97
      157
 70
     0
162
               434
311
451100124013401140138014C0124013C013800B00104013401100150017C00A8017C01100124013401012A00404A801012A00404A800C
161
                11
310
43EC
 94
        0
  0
ACAD_PROXY_OBJECT
  5
40A
102
{ACAD_REACTORS
330
406
102
}
330
406
100
AcDbProxyObject
 90
      499
 91
      570
 71
    33
 97
      157
 70
     0
162
               290
311
404A8010B41004D005F004600450041002D0041004D005F002A00404A801012A00404A800C
161
                11
310
43EC
 94
        0
  0
ACAD_PROXY_OBJECT
  5
407
102
{ACAD_REACTORS
330
406
102
}
330
406
100
AcDbProxyObject
 90
      499
 91
      570
 71
    33
 97
      157
 70
     0
162
               194
311
4152001040150010C012001012A00404A801012A00404A800C
161
                11
310
43EC
 94
        0
  0
ACAD_PROXY_OBJECT
  5
408
102
{ACAD_REACTORS
330
406
102
}
330
406
100
AcDbProxyObject
 90
      499
 91
      570
 71
    33
 97
      157
 70
     0
162
              1026
311
41130012401380114012738002C0038004E002C002A002D0038002C002A002D0038004E002C0041004D005F0038002C0041004D005F0038004E002C002A002D0041004D005F0038002C002A002D0041004D005F0038004E00404A801012A00441240138014C01140148015000B0014C01500110014001040148015000C8011
311
000C
161
                11
310
43EC
 94
        0
  0
ACAD_PROXY_OBJECT
  5
40C
102
{ACAD_REACTORS
330
406
102
}
330
406
100
AcDbProxyObject
 90
      499
 91
      570
 71
    33
 97
      157
 70
     0
162
               290
311
40D040148010C010441004D005F003500404A801013200419240138014C01140148015000C
161
                11
310
43CC
 94
        0
  0
ACAD_PROXY_OBJECT
  5
409
102
{ACAD_REACTORS
330
406
102
}
330
406
100
AcDbProxyObject
 90
      499
 91
      570
 71
    33
 97
      157
 70
     0
162
              2242
311
61504010C01340118010C0118014801040134011400B00104010C013401100104015001540134015001040148011C0114015000B00104010C0134011001040150015401340124011000B00104010C0134015C011401300110014C0164013400B00104010C0134014C015401480118014C0164013400B00104010C013401180
311
114010401500124011000B00104010C0134014001040148015001480114011800B00104010C01340108010401300130013C013C013800B0010401340110015001140110011C0114014C0164013400B001040134011C014C010C01480114015C010C01040130010C0150010401080130011400B00104010C013401340104014
311
8012C014C015001040134014001012A00404A801012A00404A800C
161
                11
310
43EC
 94
        0
  0
FIELD
  5
E3E
102
{ACAD_REACTORS
330
E3D
102
}
330
E3D
100
AcDbField
  1
_text
  2
%<\_FldIdx 0>%
 90
        1
360
E74
 97
        0
 91
       63
 92
        0
 94
       13
 95
        2
 96
        0
300

 93
        1
  6
ACFD_FIELDTEXT_CHECKSUM
 93
        2
 90
        2
140
1621.0
 94
        0
300

302

304
ACVALUE_END
  7
ACFD_FIELD_VALUE
 93
        3
 90
        0
 94
        0
300

302

304
ACVALUE_END
301

 98
        0
  0
DICTIONARY
  5
194
330
22
100
AcDbDictionary
280
     1
281
     1
  0
DICTIONARY
  5
188
330
97
100
AcDbDictionary
280
     1
281
     1
  3
FBXASSET
360
189
  0
DICTIONARY
  5
186
330
96
100
AcDbDictionary
280
     1
281
     1
  3
FBXASSET
360
187
  0
DICTIONARY
  5
110
330
98
100
AcDbDictionary
280
     1
281
     1
  3
BUMPTILE
360
112
  3
DIFFUSETILE
360
111
  3
FBXASSET
360
18A
  3
OPACITYTILE
360
113
  3
REFLECTIONTILE
360
114
  0
DICTIONARY
  5
274
330
273
100
AcDbDictionary
280
     1
281
     1
  3
ACAD_FIELD
360
275
  0
DICTIONARY
  5
104
330
87
100
AcDbDictionary
280
     1
281
     1
  3
ACAD_ROUNDTRIP_2008_TABLESTYLE_CELLSTYLEMAP
360
202D
  0
ACAD_PROXY_OBJECT
  5
23D
102
{ACAD_REACTORS
330
23C
102
}
330
23C
100
AcDbProxyObject
 90
      499
 91
      542
 71
    33
 97
      157
 70
     0
162
              3734
311
411040138014C01240243904018C01B4014C01D401C801980150019401E001D0014C01D001900109410063006D0046004300460053007400640043504018C01B4015C019401B0019001A401B8019C014C01D001900108410063006D004900640053007400640042D04018C01B40110018401D001D401B4014C01D001900109
311
410063006D0042004F004D005300740064004410401B4019001D00110019401D0018401A401B0014C01E401B4014C01D00190011141006D0064007400530065006300740069006F006E00530079006D005300740064004450401B4019001D0010C019401B801D0019401C8013001A401B80194014C01D00190011141006D00
311
640074005400680072006500610064004C0069006E00650053007400640042D0401B4019001D0013801BC01D00194014C01D00190010B410063006D00540061007000650072005300740064004350401B4019001D0010401B8015801A4019401DC014C01D00190010B4100630041006D0067004C0061007900530074006400
311
42D04018C010401B4019C011001A401B4014C01D0019001114100630041006D00670048006F006C0065004300680061007200740053007400640043504018C010401B4019C015001A401D001B00194014C01D0019000
161
               725
310
73CB81E85EB51B8BE3F8000000C00040540600800030C0200000030000B81E85EB51B8BE3F495222812028120281202812028120281202812048120481202812028120281202812028120281202812028120280A04809FFFE7FFFC
340
11
360
23E
360
23F
360
240
360
241
360
242
360
243
360
244
360
268
360
245
360
267
360
246
360
247
360
248
360
249
360
24A
360
24B
360
24C
360
265
360
266
340
24D
340
0
340
15
340
15
 94
        0
  0
ACAD_PROXY_OBJECT
  5
210
102
{ACAD_REACTORS
330
20F
102
}
330
20F
100
AcDbProxyObject
 90
      499
 91
      518
 71
    33
 97
      157
 70
     0
162
              4140
311
42D10015C011C014C01140150015001240138011C014C0109430041004E00470041005200520041005900420CC00C001F000D000D401F000D800C00106430045004E0041004E004700424D000D401F000E400C001F000C400CC00D40106430045004E0044004900410041D0C01140138011001240104014C010B30002E0035
311
007C0031002E0030007C0031002E00350041D0C0114013801100124014C01500106430045004E004C0045004E004190C01140138013C01180118010E4300480041004D00460045005200440049004D004D004F00440045004550C0120010401340118011401480110012401340134013C01100114011001140118010401540
311
1300150010943004C0049004E0041005200520041005900438C000B800C400C800D401F000C000B800C800D401F000C000B800D4010843004C0049004E004500540059005000415600130012401380114010944005700470055005300430041004C00450041D300104014C0150013C0108012801013000421340104012C011
311
4015801240114015C010650005300430041004C00450041948011401580124014C0124010130004154C010C010401300114010331003A00310042550012401340114014C01500104013401400107560045005200530049004F004E00414C400D400B800C000C001107B00440057004700530045005400540049004E0047005
311
30045004E0044007D00C
161
               572
310
40682A0A940000000000001C07E82A50000000000000601FA50000000000000701FA50000000000000701FA7F27F20A82A50A0A9FA040C008000105415280DF8927899905CD0505C
 94
        0
  0
ACAD_PROXY_OBJECT
  5
3D9
102
{ACAD_REACTORS
330
20F
102
}
330
20F
100
AcDbProxyObject
 90
      499
 91
      518
 71
    33
 97
      157
 70
     0
162
               356
311
4154C01A00184019801D001107B00440057004700530045005400540049004E004700530045004E0044007D00C
161
                11
310
404C
 94
        0
  0
ACAD_PROXY_OBJECT
  5
211
102
{ACAD_REACTORS
330
20F
102
}
330
20F
100
AcDbProxyObject
 90
      499
 91
      518
 71
    33
 97
      157
 70
     0
162
              1382
311
43550014801040138014C014C01140150015001240138011C014C0112440052004100570049004E0047005400520041004E0053004C004100540049004F004E004353C01480124011C012401380104013001300164017C013C0138010A53004F0055005200430045004C0041004E00470040D1401380154010955005000520
311
0450053004500520056004500441EC0110015C011C014C01140150015001240138011C014C01140138011001F400
161
               126
310
4060C008000418010000A0A0C0080000
 94
        0
  0
FIELD
  5
E74
330
E3E
100
AcDbField
  1
AcObjProp.16.2
  2
\AcObjProp.16.2 Object(%<\_ObjIdx 0>%).CustomScale \f "%sn"
 90
        0
 97
        1
331
9A0
 91
       63
 92
        0
 94
       59
 95
        2
 96
        0
300

 93
        2
  6
ObjectPropertyId
 93
        2
 90
       64
330
9A0
 94
        0
300

302

304
ACVALUE_END
  6
ObjectPropertyName
 93
        2
 90
        4
  1
CustomScale
 94
        0
300

302

304
ACVALUE_END
  7
ACFD_FIELD_VALUE
 93
        4
 90
        2
140
0.7999999969131437
 94
        0
300
%sn
302
1"-1.25"
304
ACVALUE_END
301
1"-1.25"
 98
        8
  0
XRECORD
  5
189
102
{ACAD_REACTORS
330
188
102
}
330
188
100
AcDbXrecord
280
     1
 70
     1
 90
429727718
  1
508B35C9-AEE7-456F-BE74-D52651303AC6
310
504B03040A0000080000B670623B3DEE336E79000000790000001B0000006175746F6465736B2D64657369676E2D7061636B6167652E786D6C3C3F786D6C2076657273696F6E3D22312E302220656E636F64696E673D227574662D3822203F3E3C666F726D6174733E3C666F726D61743E687474703A2F2F736368656D612E
310
6175746F6465736B2E636F6D2F64657369676E2D7061636B6167652F323030393C2F666F726D61743E3C2F666F726D6174733E504B0304140006080800B670623BD486FD9CA0000000F4000000130000005B436F6E74656E745F54797065735D2E786D6C7D8EC10E82300C865F65E91D8A1E8C310C0EEA1BF002731658846E
310
D98AC1B77784ABF1D8FE5FBFBF75BBCE937A534CCEB38643598122B6FEE978D0B0485F9C41B54DDD7D022595594E1A469170414C76A4D9A4D207E29CF43ECE46F218070CC6BECC4078ACAA135ACF422C856C0E68EA1BF5669944DDD7BCDE7B1F8E415D77AECB980613C2E4AC91FC167A2B244592486606FC29C8FD7F045B9A
310
EF7053A7E60B504B0304140006080800B670623B28ED286BEB0000007C01000008000000636F72652E786D6C8D90416EC3201045AF82665B6183218D6D61A254764FD00B204C5C94182C03558F5F9C3852BBEB6A467FFE9B197D71FA9E6FE8CBACC17AD7012D0820E3B41FAD9B3A48F1826B40272956EFE32F1B20A766D3C1
310
268314D3EAD3B24BDABB685CCCAAF3A3D94515828980F42D371D04FD696655A814B3235C8B45E9AB9A4C419F5D8653B2237A1CB163DE672FD6AC209BF3C08E0D1B30EB19C3FC9D72FCC6EB231EFA33EDE96BDD341517E5064B11EDFCBCAF57A3A2194156843498524CAA0FCA5B7268F9E185D42D21A2DCEC7FA0B48CFF8492
310
759155FBBB0F2C80A4F991FB408A72CB22977B50B96EB9C91F504B0304140006080800B670623B55019EA25F0000007C00000007000000636E782E786D6C4DCB3B0E80201045D1AD90E915ED2CF8AC45050C11660C8261F98AB1B07AC9C97D42D718D865D3E909258CFD00CCE24AC6E326A164D74DC0B4128928FF32603847
310
2BA13128B1252AC747C6BAB984FC68F0B87FE8960A5C09FE86CFB69FBA01504B0304140006080800B670623B7BC41AC871010000D40300000C0000006662782F636F72652E786D6CC553ED6E8320147D15C2DF4501B56B6D90A64BBB27D80B50A5CE54C120983EFEAE1F4DD7A56BBA5FF3879273EEE59E7310BE393735EA95
310
ED2AA333CC428A91D2B9292A5D66D8BB63B0C26823B835C67D2BC348CB46657880B1E0A535BE9DA1DC68A7B403549B42CDA0EC3AE530CA6B5864B8CB3F552343E91D5474A7B095F949962A6421D0502778E72C0840D390E18DC5F170E664C205F7BE2A66B62A605A75AC94C522DDEEE3651AEF837817C741F2CE92E02D592D
310
83FD6ECB76EC7595A651C2C9D02CB8AB9A8BBADC2AE954814544691A3016D0E883256BBA58278B17BA5A53CAC9507ED3E4DBE2C9265F691747B3DCA9ADC382819091F8E1162272A8933DE82182932144F88C09DF060D8140C84E1EEA8B8F1340BDCA9DB1093085F157AA97B557309586747CD0EF0B4EA64E983A6E0EAEEFCE
310
889E9EF17847386AA94B30211D2C0FDE0D3AF9A4610EAD5536E8DD1969631B593F67E381C33F5157F17725E5A636F6BF1491F980C8FC7B90E13E8A2F504B0304140006080800B670623B70102A487D0000009D0000000B0000006662782F636E782E786D6C4DCCD10A83201886E15B91FFDC95A5C30335ACCDFB886521330D
310
A76397BF1A1DECE883878F57749FD5A3B74D2F17830472A901D9F088930B8B849267CC01754AA418F3DF0D5018572BE160506249B16C274D761E8BCFBB7A179E27F65CB39A0F14D396184C9921B81F34C3ACA1B4B99ABB6E6F062A25AA5F69DF23ACBE504B0304140006080800B670623B3610CA3329010000120200003100
310
00006662782F42384135303843342D343331462D343546312D424341352D3532343432364645413344462F636F72652E786D6C8D515B6EC32010BC0AE22B55850D0E446E848992B43E412FE000495162B07854397EA176A4F62F3F2C9A9D991D58BEBB8F37F0AD7D30CE76905418026DA553C65E3A98E219B510EC04F7CEC5
310
3F3408EC30EA0E16180A7EF12E4D0B249D8DDAC68C5AA7F4020E21E80881BCE54B0783FCD2E3500D296646B856D320AFC34557A4CAEDCC133C449F0380794839A138B47B86DB2345744D7A44594FD0E1B867883594369BFE63BF7EEF793D0B054FC9A8456E548E63CE46FB674D8A58F068C6477CE9F510B582A2C1F80D1182
310
70F349E816B32D65AFB8DD62CCEB42FF274A937A52948C8DEB66893BCB021484D7734370E5D2E9F608A3EF93F3119479ABA0E50B14B8C298119A43CCC4FCFCECB8A18B6388CEE7EF5D5D4F994BD86CBBA182D76543B9FCAE2FD7B24DF103504B0304140006080800B670623B1B8617914E0100003303000030000000666278
310
2F42384135303843342D343331462D343546312D424341352D3532343432364645413344462F636E782E786D6CD593C16EC32010447F0571AD6CE3D489D20813A9877E410FBD62D82434182CC055F3F75D1292E692438FBD206B7698593D61BEFD1E2DF982108D773D6D6B460938E5B571FB9ECE6957AD29D90A1EBC4F7736
310
4A9C1CA1A759A682EF839FA72269D8C9D92654AD71C72206887E0E0A22CAF926B15E498B01E0AA19451807D01A34B919F16B070157417138917400F2F6FA41FCF0092A45DEE414C19BDC21783E4BD39D891265658C3D8DEA00A3ACE59CBC8678ACB54CB26EEB6BD7839D7E9348BE70AD9C8321B9BCA7F9A4A26C542347DEE0
310
50F09802D22BA6749A800A394DD62899107273365E3C82CFC6A55557BC06C10774B7ABE7AEC3B0F34CF06446280E154026D0542C187BA9DAB6628BF7B6DBB0E5A65B3EB1F58631DE64BBE083F7B65CC218087E22CABB042E51D1F2268F1FE12B3EA24D40D63E9CFE00120194D60B9D5BC67FE6D39CDF37E20AF817881F504B
310
0304140006080800B670623BBFEF2E3B690500003C100000340000006662782F42384135303843342D343331462D343546312D424341352D3532343432364645413344462F6F626A656374732E786D6CAD575D739B3814FD2B0CFB0C98D84E931D4227B6938EA793B6534F3BFB90198F0099B001899144EAECAFDF231018B0
310
D37A3FFC609090EEE7B94757C1FB7D915B2F54C88CB31BDB7727B64559CC938CA53776A576CE956DBD0F03C1B9EA2DB32D460A7A63EB693B0C52C1ABD24C257447AA5C8D66EF177F5832A68CDA569C13296F6C193FD182B8A4523CA1F2D94D88226EBADBBBBEDB2C1C8A4D05299F46424B222853B014F30C52ACC6287F389C
310
D85E1878FA7B18E87FB36AFAF62AAFF667A83F635211161F291B8999FAB3D5DDC5FCDA99CF6653677679E13B8BFBC5CAF1DF4D27CBCBE5F2FAF6EE1A8AA51290642C117467871F101B91C581D77CEA2C36869F3229E68CD1B8F61F1ED6361B89092D294B90C78C4A68EB793D190E7D1D9BDEE7A91E1B95FDE9F3BCEAEFE809
310
6A6D6F9F7D4B79F4275C90E7A04248AA51D5C4C738DAE06F72885AC4796EBE65D22A88A22223B995679120E2D50EB1542F098381188D4EA111AE3DB043FF20AF6F2B4AE3D7D83D65E5AECA730D4D3BAC91BD05FEA992B565D95F549CD6069B90AB2A63EACA38A45E4B6A87D781574F86817E4C2FCCC72690D62E2729520E37
310
9BAF234797BAF6D62B3BFC781FED37BA1E4F2B2F052FA9501A3E80569BB8F6A9A364D4FA67654E6F803383981F82F21591FF84F23D9882BC896C3FDBCF8C162508933B2E0AE4C69DD43F6BD2BE38DDDBF10BF86CB4FA784D37F3AF16075E67EC9030DECA1FC0A55373F5DFF3378C591FA9BDF485C10B0A8C8BA909E5262639
310
A8E72163488806A595734C81CB77D1DE0ED7604A303B76913CEC0272F412782FF88EFF4636D8AA56DF7B322474C4B767303F625997056C7B032C473C592B36CEBD15F3F9FF5233B7ABCDC74D257624A60F8658567497B14CE1EC3C80B76FD02011038F9EE9EB0F2E12387A9C844D3F09855125116D1D731DF8B43D2CF4E0A0
310
79A020C6BE946BCE0B7EA1E1219331CD73C228AF5A2DDD31A4B1DA918CE91350854D40A71723140BFA92E94E62B0626016CEFA5864A50E5977E8753CEDBEE1CBB7F52780D20E17AF0BA0F5F9B02A3AD07DCC732EB6D1EBB661421BE0C39E21BABF0FE16D22EA6929407C8DE596724C88B749B6DB5512BC7B228ADFD7CB7EA6
310
3A22397E690BA8D5D8D4E40CEC8CDA23C2C0B7D5898640101CEC9C6D331CE328CB93CAFBBAC70A642DF70DF95155945B52F08AA973C23469FD69ADEF84F7BB18F983A8F8C90E37F5D35980B2139A1C523540813E824EF83448CF7C72B598CE97D7CEEDDDDD3B6736BFBC771677EF66CE6A7E7139F7A793E9EDF2B2B3A8B624
310
0CDA13AA5F8388264EC4A0129909F3B7F5A16CEDF08128E97D680ACA4B9BE7B7B58BB638F0B00700EF36AE8B32A705658A68F83EE897FC2B41573190D1CCAF0B92D233A47CFEB019D9809933F67DD1A5467F8CF69AD9A5AE859342D45355448C64F968A371DC2D596ADC6E43D93D1B466F877A64E2893E54F23C4B40388995
310
525E5005DA3983ED45412510D3EFCA13737B3863F74BD30F2A12E5B4B5E489A025CE25500DB855B11ACE5BBFA185D35DD48D8DC3CE7DC69F2944DB42AA6F6CF09BCA622ADD08C7A36E7C6AE18000BAB08E040135C2D21C9D75B3A91B77BB746C403F38018DFE6EC939DD92F16B40BC05294B9CDA035AAD6D330AE27FE4786B
310
8E45145EA34A75BE1C263A676A35A8ACC6297337400BF16C54EF515F3F77CB77EB3583889C754FFA29081AA98E2222ADEF05DA3E63D2EDEA8B8756C05A7FB6CABC4A91CBF325398202CC952E70A008A830324BA200D5E5EF8F5F04C75DB4B0EE3340E071C98B823333B83577596BF3849B69F2085AA0FAFA212F26BEFF5877
310
FDE622B28D88A42E49E43326DA82D31E8CB006401E1DA726059ECEC168F97A6599036306A135688F9AD2E61A6EA178F4CD51974A9F2CCB9F36FE5EBD14601068D9C3BF01504B0304140006080000B670623B000000000000000000000000350000006662782F42384135303843342D343331462D343546312D424341352D35
310
32343432364645413344462F76657274696365732E62696E504B0304140006080800B670623BF270F1330600000004000000360000006662782F42384135303843342D343331462D343546312D424341352D3532343432364645413344462F747269616E676C65732E62696E636660600000504B0304140006080000B67062
310
3B000000000000000000000000370000006662782F42384135303843342D343331462D343546312D424341352D3532343432364645413344462F617474726962757465732E62696E504B0304140006080800B670623B08DA0BD19000000041010000360000006662782F42384135303843342D343331462D343546312D4243
310
41352D3532343432364645413344462F6469726563746F72792E786D6C858F410AC3201045AF22B36F53E9A60B35CBEEBAE80D244E44489C6234F4F835464A48035D0DF398FF9F8AF63D0E6CC63039F212F8F9020C7D47C6792B21C5FE7403D62A1188E2E60C98D7234A5830286103A55745067B9D86B8A3CF9C7F90C11DE6
310
07FB144396D7B6A82D282E9A152AD114D5EF2CB866EEE831B8EEA07A7BB5A8D7D61A2BAAEB7FD5F70921FF497D00504B0304140006080800B670623B3B4606F3FE000000A00100003B0000006662782F42384135303843342D343331462D343546312D424341352D3532343432364645413344462F7265736F75726365732F
310
636F72652E786D6C8D504B6E833010BD0A9A6D65B08134808CA354A427E8052C332156828DFCA97AFC9A40A576D7CDCCE87D344F8F9FBEE647F689CE6B6B7A6039850C8DB2A336530F315C4903D94970676DF82583CCC8197B5861107C72362E3BA4AC096842428D1D7107A5F71820538F74F4E0D50D6799CB1892C2DFF345
310
AABB9C306779A2934E701F5C0A906D4FD609C2A1B7D129F4BCD858C163D4E3AED163FAA9AF1A1D88F67CA98E6D35906AA82A52BFB39ABCD5CD915C86331BD86BD3B665CD8BD52C78D0F34F46E550061C419494B6843142CB0F5677F4D0D58717DA7494F26295FF31C565FCA7296A13AA728FBBD93C0896823C09C18BB5AFB4
310
9E65A6BD762BBE01504B010214000A0000080000B670623B3DEE336E79000000790000001B00000000000000000000000000000000006175746F6465736B2D64657369676E2D7061636B6167652E786D6C504B01021400140006080800B670623BD486FD9CA0000000F40000001300000000000000000000000000B2000000
310
5B436F6E74656E745F54797065735D2E786D6C504B01021400140006080800B670623B28ED286BEB0000007C010000080000000000000000000000000083010000636F72652E786D6C504B01021400140006080800B670623B55019EA25F0000007C000000070000000000000000000000000094020000636E782E786D6C50
310
4B01021400140006080800B670623B7BC41AC871010000D40300000C00000000000000000000000000180300006662782F636F72652E786D6C504B01021400140006080800B670623B70102A487D0000009D0000000B00000000000000000000000000B30400006662782F636E782E786D6C504B01021400140006080800B6
310
70623B3610CA3329010000120200003100000000000000000000000000590500006662782F42384135303843342D343331462D343546312D424341352D3532343432364645413344462F636F72652E786D6C504B01021400140006080800B670623B1B8617914E010000330300003000000000000000000000000000D10600
310
006662782F42384135303843342D343331462D343546312D424341352D3532343432364645413344462F636E782E786D6C504B01021400140006080800B670623BBFEF2E3B690500003C10000034000000000000000000000000006D0800006662782F42384135303843342D343331462D343546312D424341352D35323434
310
32364645413344462F6F626A656374732E786D6C504B01021400140006080000B670623B0000000000000000000000003500000000000000000000000000280E00006662782F42384135303843342D343331462D343546312D424341352D3532343432364645413344462F76657274696365732E62696E504B010214001400
310
06080800B670623BF270F133060000000400000036000000000000000000000000007B0E00006662782F42384135303843342D343331462D343546312D424341352D3532343432364645413344462F747269616E676C65732E62696E504B01021400140006080000B670623B00000000000000000000000037000000000000
310
00000000000000D50E00006662782F42384135303843342D343331462D343546312D424341352D3532343432364645413344462F617474726962757465732E62696E504B01021400140006080800B670623B08DA0BD1900000004101000036000000000000000000000000002A0F00006662782F42384135303843342D3433
310
31462D343546312D424341352D3532343432364645413344462F6469726563746F72792E786D6C504B01021400140006080800B670623B3B4606F3FE000000A00100003B000000000000000000000000000E1000006662782F42384135303843342D343331462D343546312D424341352D3532343432364645413344462F72
310
65736F75726365732F636F72652E786D6C504B0506000000000E000E0080040000651100000000
  0
XRECORD
  5
187
102
{ACAD_REACTORS
330
186
102
}
330
186
100
AcDbXrecord
280
     1
 70
     1
 90
429727718
  1
887D55A9-D0DD-414E-B741-A7DCD4DA2B4C
310
504B03040A0000080000B670623B3DEE336E79000000790000001B0000006175746F6465736B2D64657369676E2D7061636B6167652E786D6C3C3F786D6C2076657273696F6E3D22312E302220656E636F64696E673D227574662D3822203F3E3C666F726D6174733E3C666F726D61743E687474703A2F2F736368656D612E
310
6175746F6465736B2E636F6D2F64657369676E2D7061636B6167652F323030393C2F666F726D61743E3C2F666F726D6174733E504B0304140006080800B670623BD486FD9CA0000000F4000000130000005B436F6E74656E745F54797065735D2E786D6C7D8EC10E82300C865F65E91D8A1E8C310C0EEA1BF002731658846E
310
D98AC1B77784ABF1D8FE5FBFBF75BBCE937A534CCEB38643598122B6FEE978D0B0485F9C41B54DDD7D022595594E1A469170414C76A4D9A4D207E29CF43ECE46F218070CC6BECC4078ACAA135ACF422C856C0E68EA1BF5669944DDD7BCDE7B1F8E415D77AECB980613C2E4AC91FC167A2B244592486606FC29C8FD7F045B9A
310
EF7053A7E60B504B0304140006080800B670623BBC1638F5EC0000007C01000008000000636F72652E786D6C8D90416EC3201045AF82665B61836BE2D8C24471DB9CA01740401C94182C03558F5F9C3852BBEB6A467FFE9B197D7EF89E6EE8CB2CC17AD7032D0820E394D7D68D3DA478C67B4007C117EFE32F1B202727D3C3
310
2A83E0E3E2D3BC49CABB685CCCAAF3DA6CA20CC14440EA969B1E82BA98491632C5EC08D76296EA2A4753D06797E194AC468F2356E77DF66CCD02825543D50CACC62D39ED70FDC68EB8FD68F6F8787A6784342D1DDA1D2F5758F068A7E77DB518198D065111D2624A31A93E69DD11D6D5EC85EC3B4278B9DAFF4069D6FF8492
310
75F1B5DADE7D600104CD8FDC0782976B16B9DC83CA75CD4DFC00504B0304140006080800B670623B55019EA25F0000007C00000007000000636E782E786D6C4DCB3B0E80201045D1AD90E915ED2CF8AC45050C11660C8261F98AB1B07AC9C97D42D718D865D3E909258CFD00CCE24AC6E326A164D74DC0B4128928FF326038
310
472BA13128B1252AC747C6BAB984FC68F0B87FE8960A5C09FE86CFB69FBA01504B0304140006080800B670623B3586FFB671010000D40300000C0000006662782F636F72652E786D6CC553ED6E8320147D15C2DF4541A76D6D90A6DDD627D80B50A4CE54C120983EFEAE1F4DD7A55BBA5FF3879273EEE59E7310B6393735EA
310
95ED2AA3731C851423A5A5292A5DE6D8BB63B0C268C39935C67D29C3488B46E578803167A535BE9D2169B453DA01AA4DA16650749D7218C91A1639EEE4876A4428BC838AEE14B6429E44A9C228041AEA38EB9C0501681A32BC313F1ECE8C4C3867DE57C5CC56054CAB8E95B298A7F12E5EEED224C8E87E11242FE936C8DE96
310
AB60BB7F4D295D66D12E5B30323473E6AAE6A24E5A259C2A308F29CD82280A68FC1E256B9AAE93F489AED694323294DF34F9B678B0C957DA3DC7B3DCA9ADC33C022123F1CD2D44E450277AD04338234388F01913BE0D1A0281909D38D4171F27807A259DB1093085F157AA17B557309586747CD0CF0B46A64E983A6E0EAEEF
310
CE881F9EF1FB8E70D44297604238581EBC1B74B249C31C5AAB6CD0BB33D2C636A27ECCC62F0EFF445DC5DF95244D6DEC7F2922F30191F9F720C37DE49F504B0304140006080800B670623B4220A0FF7D0000009D0000000B0000006662782F636E782E786D6C4DCCD10A83201886E15B91FFDCE542CB0335D0EC3E6259C84A
310
C3E9D8E5AF46073BFAE0E1E315DD675BD1DBA5978F41C2FD4600B9F088930F8B849267CC01754AA418F3DF0D50183727E164506249B1EC174D6E1ECB9A0F5D7D785E68DB8151CD286E5A5363CA6B8A39E90D36D40E96B086F55A43A544F52B1D7B86D517504B0304140006080800B670623B2FA3FEDE290100001202000031
310
0000006662782F45374635344235342D363743322D343832342D383044432D4334454645303536354442422F636F72652E786D6C8D515B6EC32010BC0AE22B55850D2E386E848994D7097A0117488A1283C5A3CAF10BB523B57FF961D1ECCCECC0F2ED7DBC816FED8371B687A4C210682B9D32F6D2C314CFA883602BB8772E
310
FEA141608751F7B0C050F08B77695A20E96CD43666D43AA5177008414708E42D5F7A18E4971E876A483133C2B59A06791D2EBA22556E679EE021FA1C00CC43CA09C5717D6274C7286AD7FB06D1AEA1A8C3873DDAD3E3E98859CB0EBB1DAF67A1E02919B5C88DCA71CCD968FFAC49110B1ECDF8882FBD1EA256503418BF2342
310
106E3E08DD60B6A1EC15771B8C795DE8FF4469524F8A92B1F1AD59E2CEB20005E1F5DC105CB9F4797B84D1F7C9F908CABC55D0F2050A5C61CC1AD2F27A26E6E767C7962E8E213A9FBF7775FDCC5CC266DB960A5E970DE5F2BBBE5CCB36C50F504B0304140006080800B670623B1B8617914E01000033030000300000006662
310
782F45374635344235342D363743322D343832342D383044432D4334454645303536354442422F636E782E786D6CD593C16EC32010447F0571AD6CE3D489D20813A9877E410FBD62D82434182CC055F3F75D1292E692438FBD206B7698593D61BEFD1E2DF982108D773D6D6B460938E5B571FB9ECE6957AD29D90A1EBC4F77
310
364A9C1CA1A759A682EF839FA72269D8C9D92654AD71C72206887E0E0A22CAF926B15E498B01E0AA19451807D01A34B919F16B070157417138917400F2F6FA41FCF0092A45DEE414C19BDC21783E4BD39D891265658C3D8DEA00A3ACE59CBC8678ACB54CB26EEB6BD7839D7E9348BE70AD9C8321B9BCA7F9A4A26C542347DE
310
E050F09802D22BA6749A800A394DD62899107273365E3C82CFC6A55557BC06C10774B7ABE7AEC3B0F34CF06446280E154026D0542C187BA9DAB6628BF7B6DBB0E5A65B3EB1F58631DE64BBE083F7B65CC218087E22CABB042E51D1F2268F1FE12B3EA24D40D63E9CFE00120194D60B9D5BC67FE6D39CDF37E20AF817881F50
310
4B0304140006080800B670623B29652116630500003C100000340000006662782F45374635344235342D363743322D343832342D383044432D4334454645303536354442422F6F626A656374732E786D6CAD575D739B3814FD2B0CFB0C989834C90EA1639B24E3E9A6EDD4D3CE3E64C623834CD8006224913AFDF57B040203
310
B65BEF871F0C12D2FD3CF7E8CA7FBFCB33E3957291B2E2D674ED8969D02262715A24B76625B7D6B569BC0F7CCE98EC2D338D82E4F4D654D366E0279C55A59E8AE99654991CCDDECFFF3444440B6A1A514684B83545F44C7362934AB2988A173B2692D8C97667BB76B3702836E1A47C1E092D09A78584A5982F20C5688C7287
310
C389E904BEA3BE07BEFAD7ABA6A75739B53F43FD69212429A20365233153D70BEF2E2E6FAC4BCF9B5ADEBB0BD79ADFCF43CBBD9A4E16EF168B9BD9DD0D140BC921495BC2E9D60C1E101B9E46BED37CEA2CD6861F3329624541A3DA7F7858DBAC25C6B4A4458C3CA654405BCFEBC970E8AAD8F43E4FD558ABEC4F9FE7557F47
310
4F506B7BFBEC5BCA367FC105710E2AB8A00A554D7CB4A30DFE26FBA86D18CBF4B75418399194A72433B274C3097F33032C554B027F2046A1932B842B0FCCC0DDCBEBDB8AD2F835768F59B9ADB24C41D30C6A64AF817F2A456D59FA83F2E3DA60137255A585BCD60EC9B7929AC18DEFD49381AF1ED30BFDB109A4B1CD488294
310
C3CDE6EBC8D185AABD6568061FEE37BB95AAC7E3CA4BCE4ACAA5820FA0D526AE7DAA2869B5EE5999531BE0CC20E6FBA07C41E43FA27CF7A6206F3CDD793B4F6B919C1462CB788EDCD893FA674CDA17AB7B3B7C019F8D561FAEE966FED562DFE98C1D12C6A9FC015C2A35D7FF3D7FC398F591DA4B5FE0BFA2C0189FEA50AE22
310
92817A1ED3020951A03432862970F976B33383259812CC8E5D240BBA801CBCF8CE2BBEE3BF910DB6AAD5F79E05123AE2DB33981FB1ACCB02B69D00CB014FD68AB573A7627EF9BFD4CC2C5C7D58557C4B22FAA88925A4DBB44825CECE3D78FB060D1231F0E885BE7D673C86A3874958F593906B5502D1563157814FDAC3420D
310
F69A070A22EC4B98E23CFF171A1E5311D12C23056555ABA53B8614563B92D17D02AAB009E8F46284624E5F53D5490C560CCCC2591FF1B45421EB0EBD8EA7ED13BE7C5D7E0428CD60FEF60779EB13E6664FF711CB185F6FDED60D139A001FF60CD1FD6D086F1D51474901E26B2CB794A343BC8ED3EDB612E0DD2351FCB65CF4
310
33D511C9E14B5B40ADC6A6263DB0336A8F700DDF56271A024E70B0B3629DE21847591E55DED73D56206AB927E46FAABC5C939C55853C274C93D69FD6FA4E78BF8B11DF898C9ECD60553FAD39283BA6F18984AA23E8884F83F45C5F5F859797B31B2B9C84A1E5B9DE9D35BFF25C6B76152E422F9C5DCC3D847F5801ED09D5AF
310
41441327A25FF15487F9EB725FB666F048A4701E9A827292E6F97569A32DF61DEC01C0BB8DCBBCCC684E0B49147C1FD54BF685A0AB18C868E6973949E819523E3DAC463660E68C7D9F55A9D1EFA3BD7A76A16AE1A810F95CE59B82A4D968A376DC2E8B44BBDD86B27B368CDE0ED548C7137DA860591A83706223A12CA712B4
310
7306DBF39C0A20A6DF95C7FAF670C6EED7A61F946493D1D6926782963813403548A78AE470DEF80D2D9CEAA26E4D1C76F60BFE74219A06527D6B82DF641A51616F703CAAC6A7160E08A00BEB4810A0274592A1B36E3675E36E978A0DE80727A0D6DF2D39A75BD27E0D8837276589537B40ABB56D5A41F48F1C6FCD3188C4EB
310
A6929D2FFB89CE995A4D00AE813BDD032DC48B56BD437DFDDC2DD7AED70C2272D63DE9A72068A45A92F0A4BE17A8A06B9366E16707AD80B1FC649459952097E74BB23805982B55E0401150A165964402AA8BDF9F3E7386BB686EDCA780C0D382E5392BF460A6EFB2C6EA1937D3F809B440D5F5435C4C5CF7A9EEFAF54564BD
310
2182DA24162F98680B4E7930C21A0079709CEAEB99A372305ABE0C0D7D6078105A83F6A0296DAEE1068A47DD1C55A9F4C9B2FC69E3EFD44B81028E963DF81B504B0304140006080000B670623B000000000000000000000000350000006662782F45374635344235342D363743322D343832342D383044432D433445464530
310
3536354442422F76657274696365732E62696E504B0304140006080800B670623BF270F1330600000004000000360000006662782F45374635344235342D363743322D343832342D383044432D4334454645303536354442422F747269616E676C65732E62696E636660600000504B0304140006080000B670623B00000000
310
0000000000000000370000006662782F45374635344235342D363743322D343832342D383044432D4334454645303536354442422F617474726962757465732E62696E504B0304140006080800B670623B08DA0BD19000000041010000360000006662782F45374635344235342D363743322D343832342D383044432D4334
310
454645303536354442422F6469726563746F72792E786D6C858F410AC3201045AF22B36F53E9A60B35CBEEBAE80D244E44489C6234F4F835464A48035D0DF398FF9F8AF63D0E6CC63039F212F8F9020C7D47C6792B21C5FE7403D62A1188E2E60C98D7234A5830286103A55745067B9D86B8A3CF9C7F90C11DE607FB144396
310
D7B6A82D282E9A152AD114D5EF2CB866EEE831B8EEA07A7BB5A8D7D61A2BAAEB7FD5F70921FF497D00504B0304140006080800B670623B6378F24DFF000000A00100003B0000006662782F45374635344235342D363743322D343832342D383044432D4334454645303536354442422F7265736F75726365732F636F72652E
310
786D6C8D504B6E833010BD0A9A6D65B0094E42641C85B639412F6099496225D8C89FAAC7AF09546A77DDCC8CDE47F3F4C4F16B7C149FE88371B603565228D06A37187BED20C50BD9437194C23B177FC9A0B06AC40E6618A4B87A97A615D2CE46B431A3D60DB8822A048C50E8473E3A08FA86A32A558A5911EEE5A4F45D5DB1
310
6465A6B34E8A107D0E502C4FE609D26370C96B0CA25A58295232C3AA3143FE692E063D485EF7F5AEE71BD2D2F39634AFFC44DAF7DD9E9CCE6F9CD25DCBFA762BAAD92C4534E34F46ED51451C40D694B6843142EB0FD61C283F34FC85EE0F948A6A96FF31A569F8A729191B37F51A77B105902C0779125254735F793DCBCC7B
310
EE567E03504B010214000A0000080000B670623B3DEE336E79000000790000001B00000000000000000000000000000000006175746F6465736B2D64657369676E2D7061636B6167652E786D6C504B01021400140006080800B670623BD486FD9CA0000000F40000001300000000000000000000000000B20000005B436F6E
310
74656E745F54797065735D2E786D6C504B01021400140006080800B670623BBC1638F5EC0000007C010000080000000000000000000000000083010000636F72652E786D6C504B01021400140006080800B670623B55019EA25F0000007C000000070000000000000000000000000095020000636E782E786D6C504B010214
310
00140006080800B670623B3586FFB671010000D40300000C00000000000000000000000000190300006662782F636F72652E786D6C504B01021400140006080800B670623B4220A0FF7D0000009D0000000B00000000000000000000000000B40400006662782F636E782E786D6C504B01021400140006080800B670623B2F
310
A3FEDE290100001202000031000000000000000000000000005A0500006662782F45374635344235342D363743322D343832342D383044432D4334454645303536354442422F636F72652E786D6C504B01021400140006080800B670623B1B8617914E010000330300003000000000000000000000000000D2060000666278
310
2F45374635344235342D363743322D343832342D383044432D4334454645303536354442422F636E782E786D6C504B01021400140006080800B670623B29652116630500003C10000034000000000000000000000000006E0800006662782F45374635344235342D363743322D343832342D383044432D4334454645303536
310
354442422F6F626A656374732E786D6C504B01021400140006080000B670623B0000000000000000000000003500000000000000000000000000230E00006662782F45374635344235342D363743322D343832342D383044432D4334454645303536354442422F76657274696365732E62696E504B01021400140006080800
310
B670623BF270F13306000000040000003600000000000000000000000000760E00006662782F45374635344235342D363743322D343832342D383044432D4334454645303536354442422F747269616E676C65732E62696E504B01021400140006080000B670623B0000000000000000000000003700000000000000000000
310
000000D00E00006662782F45374635344235342D363743322D343832342D383044432D4334454645303536354442422F617474726962757465732E62696E504B01021400140006080800B670623B08DA0BD190000000410100003600000000000000000000000000250F00006662782F45374635344235342D363743322D34
310
3832342D383044432D4334454645303536354442422F6469726563746F72792E786D6C504B01021400140006080800B670623B6378F24DFF000000A00100003B00000000000000000000000000091000006662782F45374635344235342D363743322D343832342D383044432D4334454645303536354442422F7265736F75
310
726365732F636F72652E786D6C504B0506000000000E000E0080040000611100000000
  0
XRECORD
  5
112
102
{ACAD_REACTORS
330
110
102
}
330
110
100
AcDbXrecord
280
     1
270
     1
271
     1
  0
XRECORD
  5
111
102
{ACAD_REACTORS
330
110
102
}
330
110
100
AcDbXrecord
280
     1
270
     1
271
     1
  0
XRECORD
  5
18A
102
{ACAD_REACTORS
330
110
102
}
330
110
100
AcDbXrecord
280
     1
 70
     0
 90
1778669749
  1
9BF507EE-FAF7-4A99-A33D-4EE51894BC40
310
504B03040A0000080000B670623B3DEE336E79000000790000001B0000006175746F6465736B2D64657369676E2D7061636B6167652E786D6C3C3F786D6C2076657273696F6E3D22312E302220656E636F64696E673D227574662D3822203F3E3C666F726D6174733E3C666F726D61743E687474703A2F2F736368656D612E
310
6175746F6465736B2E636F6D2F64657369676E2D7061636B6167652F323030393C2F666F726D61743E3C2F666F726D6174733E504B0304140006080800B670623BD486FD9CA0000000F4000000130000005B436F6E74656E745F54797065735D2E786D6C7D8EC10E82300C865F65E91D8A1E8C310C0EEA1BF002731658846E
310
D98AC1B77784ABF1D8FE5FBFBF75BBCE937A534CCEB38643598122B6FEE978D0B0485F9C41B54DDD7D022595594E1A469170414C76A4D9A4D207E29CF43ECE46F218070CC6BECC4078ACAA135ACF422C856C0E68EA1BF5669944DDD7BCDE7B1F8E415D77AECB980613C2E4AC91FC167A2B244592486606FC29C8FD7F045B9A
310
EF7053A7E60B504B0304140006080800B670623BCA089DFFEC0000007C01000008000000636F72652E786D6C8D90416E83301045AF62CDB632D8402020E32882F604BD80653BC44AB011B6AB1EBF262152BBEB6A467FFE9B197D76FA9EEFE84BAFDE38DB03CD08206DA553C64E3DC470C1474027CE56E7C22F1B202B66DDC3
310
260367D3EAE2B24BD2D9A06D48AA754AEFA2F05E0740F29E9A1EBCBCEA59642286E4F0B76C11F226269DD15797E0188D42CF2346A57DE662F40ABCAEC77628C6120F654571D50C04B7F5B9C1E3997CD4F550BE3745C3F20DE62C98F9755FAE5A04AD801784B498524C8A4F5A75E4D055873772EC0861F966FF03C545FD138A
310
C686B2D8DF7D621E384D8F3C069CE55B16A93C824A75CB8DFF00504B0304140006080800B670623B55019EA25F0000007C00000007000000636E782E786D6C4DCB3B0E80201045D1AD90E915ED2CF8AC45050C11660C8261F98AB1B07AC9C97D42D718D865D3E909258CFD00CCE24AC6E326A164D74DC0B4128928FF326038
310
472BA13128B1252AC747C6BAB984FC68F0B87FE8960A5C09FE86CFB69FBA01504B0304140006080800B670623B68FC0B7272010000D40300000C0000006662782F636F72652E786D6CC5535B6E833010BC8AE5DF0A6C1E8124328E22D29EA01770C0A128602363A31CBFCB234A53A555FA553EC09AD9F5CE8C31DB5DDA060D
310
D2F4B556190E7C8A9154852E6B5565D8D993B7C668C799D1DA7E29C3488956667884316795D1AE5BA0422B2B950554E9522EA0E87B69312A1A5864B82F3E642B7CE12C54F467BF13C55954D20F7CA0A18EB3DE1A1080E621E31BF3D3F1C2C88C73E65C5D2E6C5DC2B4FA544B8379921C36797888BC3C8A032F4E73EA6D927D
310
EA1DF6F42D49F2E8350D5346C666CE6CDD5ED515460A2B4BCC434A375E1078347C0FE22D5D6DE3D50B5D6F2965642CBF6B725DF96493AB958DC245EEDCD6631E809089F8E61622B2A81703E8219C913144F84C09DF070D8140C8561C9BAB8F3340832CAC363130A576376A108D933095FA747AD0CF0B46E64E983A6D0EAE1F
310
CE089F9EF1FB8E70D44255604258581E9D1D75B259C3125A278D37D80B52DAB4A279CEC62F0EFF44DDC43F9454E8469BFF5244960322CBEF41C6FBC83F01504B0304140006080800B670623B0F71DDB67E0000009D0000000B0000006662782F636E782E786D6C4DCCD10A83201886E15B91FFDCA54DB73F502386BB8F5816
310
32D3703976F9ABD1C18E3E78F87855FB990379BBFCF2296AE02706C4C5471A7C9C349475A408A4352AA7B4FEDD80C47E761A7606A3A69CCA72D0E0C6BE8475D3E0E3F3409428EA6B27A84079A782899AA2EC1A7AE3ECCC2FD858CB2D544655BFD2B67BD87C01504B0304140006080800B670623BE134B4FB28010000120200
310
00310000006662782F38353834323741342D343835462D343034322D383541392D4331303331363839454531452F636F72652E786D6C8D515B6EC32010BC0AE22B55850D0EA424C24451959EA0172086A42831583CAA1CBF503B52FB971F16CDCECC0EACD8DFC71BF836215AEF7A481A0C817183D7D65D7A98D3197108F652
310
04EFD31F1A044E8DA6871586525C82CFD3020DDE25E352419DD76601558C264130DCCAA58771F832A36A544E8511AFCDA486ABBA988634A55D7852C4144A00300FA927949C71DABD1D28A29C7D208A6987383B6CD13BC16BB2E1DBE3911C453B0BA5C8D9EA456E758963CFD684674DAA588A64C747FC2118958C86B2C3788B
310
0841B8FB247487D98EB257CC77188BB6D2FF89F2A49F1465EBD2BA5BE2CEB2082511EDDC9042FB7CBA3DC298FBE4430275DE2A9AE1054ADC60CC08E3A29D89E5F9C5714317C7987C28DFBBBA9E0A97B0D97643A568EB864AF95D5FA9759BF207504B0304140006080800B670623B1B8617914E010000330300003000000066
310
62782F38353834323741342D343835462D343034322D383541392D4331303331363839454531452F636E782E786D6CD593C16EC32010447F0571AD6CE3D489D20813A9877E410FBD62D82434182CC055F3F75D1292E692438FBD206B7698593D61BEFD1E2DF982108D773D6D6B460938E5B571FB9ECE6957AD29D90A1EBC4F
310
77364A9C1CA1A759A682EF839FA72269D8C9D92654AD71C72206887E0E0A22CAF926B15E498B01E0AA19451807D01A34B919F16B070157417138917400F2F6FA41FCF0092A45DEE414C19BDC21783E4BD39D891265658C3D8DEA00A3ACE59CBC8678ACB54CB26EEB6BD7839D7E9348BE70AD9C8321B9BCA7F9A4A26C542347
310
DEE050F09802D22BA6749A800A394DD62899107273365E3C82CFC6A55557BC06C10774B7ABE7AEC3B0F34CF06446280E154026D0542C187BA9DAB6628BF7B6DBB0E5A65B3EB1F58631DE64BBE083F7B65CC218087E22CABB042E51D1F2268F1FE12B3EA24D40D63E9CFE00120194D60B9D5BC67FE6D39CDF37E20AF817881F
310
504B0304140006080800B670623B5933D422630500003B100000340000006662782F38353834323741342D343835462D343034322D383541392D4331303331363839454531452F6F626A656374732E786D6CAD575B6FA33814FE2B887D0642934E9B156594264D158D3A534DD4D13E548A0C38942D60649B4EBABF7E3F8321
310
40924EF6928780CDF1B97EE762EFF32E4B8D37CA45C2F21BD3B547A641F39045491EDF98A5DC5AD7A6F1D9F73863B243661A39C9E88DA9B64DDF8B392B0BBD15D12D295339D85DDEFE618890E6D434C2940871638AF08566C426A5641115AF764424B1E3EDCE76ED9AB0CF36E6A47819302D08A7B984A6D8CFC1C5A89572FB
310
CB91E9F89EA3BEFB9EFAD754E3D3544E654F5F7E920B49F2F040D880CDD89D2CEE2E2EA7D6E56432B6269F2E5CEB7679BBB0DCABF168FE693E9FCEEEA6102C240727AD09A75BD3BF876F78127A4EFDA9D5582B7E4CA590E5390D2BFB6161A5B3E618D182E611E2985001691DAB47FDA5AB7CD3F93C566B2DB2BB7D9E55DD13
310
1D468DEECDB3AB290BFE8409E21C54704115AA6AFF68436BFC8DF65E0B184BF5B74418199194272435D224E084BF9B3E481589EFF5D828747285706581E9BB7B7E5D5D911ABFC6EE312DB7659A2A689A7E85EC0DF04FA5A8344BFEA2FCB834E8845895492EAFB541F2BDA0A63FF59C6AD3F7D4637CA13FD68E34B629891172
310
98597F1D183A57B9B75A98FE9765B05BAB7C3C2EBCE0ACA05C2AF8005A4DE09AA7F29216EB9E15397500C6F47CBE77CA7778FE2BD277AF0AE2C693DD6437D1522427B9D8329E2136F6A8FA19A3E6C56ADF0E5F50CF06D48734EDCEBF22F69C56D97EC138153F804B85E6FABFC7AFEFB32E523BE1F3BD372418E363EDCA7548
310
52949E8724474014288D94610BB57C1BEC4C7F854A89CA8E5324F55B871CBC78CE1BBEE3BFE68D6A5589EF3C730474506FCFA8FCF0659516D0ED04580EEA6425581B77CAE797FF4BCECC16EB2FEB926F49481F746159D06D922712BD730FDEAE42BD40F42C7AA5EF3F198F60E86110D6DD20645A9480B795CF95E3E3A659A8
310
C55E724F408873315335CFFB8584874484344D494E59D94869DB90C26A5B64F49C802CAC1D3ABE18A098D3B7444D123D8A9E5AE8F5214F0AE5B2B6E9B575DA3E61CBD3EA2B4009FA940524DD1305FB6A1FB294F14DF0BEA90BA109ECE1481FDC3FFAE8D60E75141700BE82725371B4873751B2DD960265F788137FACE6DD40
310
B575E4F0A5C99F46629D92131467A41EE11ABD8D4CCC039CA0AFB37C93A08B232B8F0AEFCA1E0A1015DF13FC83322B362463652ECF71D3A8B1A7D1BE65DE1D62C44F22C317D35F574FEB16153BA2D13E543D10A80E74C4A65E78A6B7CBCBD1D5DD9DB59C2DAFACC96C3AB566E3F1C29ADCDD5DBAD7D3C9ED7C822ED74F80A6
310
41755310DE4443F44A9E68373FADF6596BFA0F440AE7BECE2727AE9F4F2B1B53B1E7E00CF0DD1E5C65454A339A4BA2D0FBA05ED2EF0443458F47BDBFCA484CCFE0F2ED7E3DD0013B679C7B5499467F0ECEEADDB9CA85A34CE44B99053949D2C1416DB85DE4B136BB7165FBAC0B7AB3542BED4F8CA182A549847A1319316519
310
95A83A67147B9E5101C47487F2485F1ECE38FD568F839204296D3479219888530154036E6528FBFBC66F98E0D4107563A2D7D9AFF8D389681A08F58D89F22693900A3B407754734FC51C10C010D6D640809EE4718AC1BA3ED4AEDB53CA37283F68805A7E4B72CEB0A4EDEAD5DD8C14059A76AFAA56BA6901E13F32BC51C720
310
12AF41295B5BF61BAD3195181FB506E6B40F4C10AF5AF40EF9F5B159AE5DD1F43C72D635E94310D45C2D49785C5D0B94D3B54AB3C5A38349C0587D338AB48C11CBF339599C02CCA54A70A008A8D03C0B2201D5F9EFCF8F9CE12A9A19CB0410789EB32C63B95ECCF455D658BFE0621A3DA32C5075FB101723D77DAE867E7D0F
310
D90444509B44E2151B4DC2290B065803200FBAA9BE9D392A0603F2D5C2D00D6302A615680F66D2FA166E2079D4C551A54AB758161FCEFD4E450A14704CECFEDF504B0304140006080000B670623B000000000000000000000000350000006662782F38353834323741342D343835462D343034322D383541392D4331303331
310
363839454531452F76657274696365732E62696E504B0304140006080800B670623BF270F1330600000004000000360000006662782F38353834323741342D343835462D343034322D383541392D4331303331363839454531452F747269616E676C65732E62696E636660600000504B0304140006080000B670623B000000
310
000000000000000000370000006662782F38353834323741342D343835462D343034322D383541392D4331303331363839454531452F617474726962757465732E62696E504B0304140006080800B670623B08DA0BD19000000041010000360000006662782F38353834323741342D343835462D343034322D383541392D43
310
31303331363839454531452F6469726563746F72792E786D6C858F410AC3201045AF22B36F53E9A60B35CBEEBAE80D244E44489C6234F4F835464A48035D0DF398FF9F8AF63D0E6CC63039F212F8F9020C7D47C6792B21C5FE7403D62A1188E2E60C98D7234A5830286103A55745067B9D86B8A3CF9C7F90C11DE607FB1443
310
96D7B6A82D282E9A152AD114D5EF2CB866EEE831B8EEA07A7BB5A8D7D61A2BAAEB7FD5F70921FF497D00504B0304140006080800B670623BD9A3B367FE000000A00100003B0000006662782F38353834323741342D343835462D343034322D383541392D4331303331363839454531452F7265736F75726365732F636F7265
310
2E786D6C8D504B6E833010BD0A9A6D65B01D0201194711694FD00B586642AD043BF2A7EAF16B122AB5BB6E6646EFA3797AE2F8B5DC8A4FF4C1383B002B291468B59B8C9D0748F1420E501CA5F0CEC55F3228AC5A708015062966EFD27D83B4B3116DCCA875136EA00A012314FA968F0182FEC045952AC5AC08D7F2AEF455CD
310
58B232D3592745883E07289E4FD609D26370C96B0CA27AB252A464A64D63A6FCD35C0C7A904D73EE467EE664DCD58CD4ED4849D79C5A723ED1B7A61977AF2D6F45B59AA58866F9C9A83DAA8813484E6947182394BFB3BAA7FBBEDEBFD0434FA9A856F91F53BA4FFF342563E38E6F719FB60092E5200F428A6AED2BAF479979
310
AFDDCA6F504B010214000A0000080000B670623B3DEE336E79000000790000001B00000000000000000000000000000000006175746F6465736B2D64657369676E2D7061636B6167652E786D6C504B01021400140006080800B670623BD486FD9CA0000000F40000001300000000000000000000000000B20000005B436F6E
310
74656E745F54797065735D2E786D6C504B01021400140006080800B670623BCA089DFFEC0000007C010000080000000000000000000000000083010000636F72652E786D6C504B01021400140006080800B670623B55019EA25F0000007C000000070000000000000000000000000095020000636E782E786D6C504B010214
310
00140006080800B670623B68FC0B7272010000D40300000C00000000000000000000000000190300006662782F636F72652E786D6C504B01021400140006080800B670623B0F71DDB67E0000009D0000000B00000000000000000000000000B50400006662782F636E782E786D6C504B01021400140006080800B670623BE1
310
34B4FB280100001202000031000000000000000000000000005C0500006662782F38353834323741342D343835462D343034322D383541392D4331303331363839454531452F636F72652E786D6C504B01021400140006080800B670623B1B8617914E010000330300003000000000000000000000000000D3060000666278
310
2F38353834323741342D343835462D343034322D383541392D4331303331363839454531452F636E782E786D6C504B01021400140006080800B670623B5933D422630500003B10000034000000000000000000000000006F0800006662782F38353834323741342D343835462D343034322D383541392D4331303331363839
310
454531452F6F626A656374732E786D6C504B01021400140006080000B670623B0000000000000000000000003500000000000000000000000000240E00006662782F38353834323741342D343835462D343034322D383541392D4331303331363839454531452F76657274696365732E62696E504B01021400140006080800
310
B670623BF270F13306000000040000003600000000000000000000000000770E00006662782F38353834323741342D343835462D343034322D383541392D4331303331363839454531452F747269616E676C65732E62696E504B01021400140006080000B670623B0000000000000000000000003700000000000000000000
310
000000D10E00006662782F38353834323741342D343835462D343034322D383541392D4331303331363839454531452F617474726962757465732E62696E504B01021400140006080800B670623B08DA0BD190000000410100003600000000000000000000000000260F00006662782F38353834323741342D343835462D34
310
3034322D383541392D4331303331363839454531452F6469726563746F72792E786D6C504B01021400140006080800B670623BD9A3B367FE000000A00100003B000000000000000000000000000A1000006662782F38353834323741342D343835462D343034322D383541392D4331303331363839454531452F7265736F75
310
726365732F636F72652E786D6C504B0506000000000E000E0080040000611100000000
  0
XRECORD
  5
113
102
{ACAD_REACTORS
330
110
102
}
330
110
100
AcDbXrecord
280
     1
270
     1
271
     1
  0
XRECORD
  5
114
102
{ACAD_REACTORS
330
110
102
}
330
110
100
AcDbXrecord
280
     1
270
     1
271
     1
  0
DICTIONARY
  5
275
102
{ACAD_REACTORS
330
274
102
}
330
274
100
AcDbDictionary
280
     1
281
     1
  3
TEXT
360
276
  0
CELLSTYLEMAP
  5
202D
102
{ACAD_REACTORS
330
104
102
}
330
104
100
AcDbCellStyleMap
 90
        3
300
CELLSTYLE
  1
TABLEFORMAT_BEGIN
 90
        5
170
     1
 91
        0
 92
    32768
 62
   257
 93
        1
300
CONTENTFORMAT
  1
CONTENTFORMAT_BEGIN
 90
        0
 91
        0
 92
      512
 93
        0
300

 40
0.0
140
1.0
 94
        5
 62
     0
340
11
144
0.25
309
CONTENTFORMAT_END
171
     1
301
MARGIN
  1
CELLMARGIN_BEGIN
 40
0.06
 40
0.06
 40
0.06
 40
0.06
 40
0.18
 40
0.18
309
CELLMARGIN_END
 94
        6
 95
        1
302
GRIDFORMAT
  1
GRIDFORMAT_BEGIN
 90
        0
 91
        1
 62
     0
 92
       -2
340
0
 93
        0
 40
0.045
309
GRIDFORMAT_END
 95
        2
302
GRIDFORMAT
  1
GRIDFORMAT_BEGIN
 90
        0
 91
        1
 62
     0
 92
       -2
340
0
 93
        0
 40
0.045
309
GRIDFORMAT_END
 95
        4
302
GRIDFORMAT
  1
GRIDFORMAT_BEGIN
 90
        0
 91
        1
 62
     0
 92
       -2
340
0
 93
        0
 40
0.045
309
GRIDFORMAT_END
 95
        8
302
GRIDFORMAT
  1
GRIDFORMAT_BEGIN
 90
        0
 91
        1
 62
     0
 92
       -2
340
0
 93
        0
 40
0.045
309
GRIDFORMAT_END
 95
       16
302
GRIDFORMAT
  1
GRIDFORMAT_BEGIN
 90
        0
 91
        1
 62
     0
 92
       -2
340
0
 93
        0
 40
0.045
309
GRIDFORMAT_END
 95
       32
302
GRIDFORMAT
  1
GRIDFORMAT_BEGIN
 90
        0
 91
        1
 62
     0
 92
       -2
340
0
 93
        0
 40
0.045
309
GRIDFORMAT_END
309
TABLEFORMAT_END
  1
CELLSTYLE_BEGIN
 90
        1
 91
        1
300
_TITLE
309
CELLSTYLE_END
300
CELLSTYLE
  1
TABLEFORMAT_BEGIN
 90
        5
170
     1
 91
        0
 92
        0
 62
   257
 93
        1
300
CONTENTFORMAT
  1
CONTENTFORMAT_BEGIN
 90
        0
 91
        0
 92
      512
 93
        0
300

 40
0.0
140
1.0
 94
        5
 62
     0
340
11
144
0.18
309
CONTENTFORMAT_END
171
     1
301
MARGIN
  1
CELLMARGIN_BEGIN
 40
0.06
 40
0.06
 40
0.06
 40
0.06
 40
0.18
 40
0.18
309
CELLMARGIN_END
 94
        6
 95
        1
302
GRIDFORMAT
  1
GRIDFORMAT_BEGIN
 90
        0
 91
        1
 62
     0
 92
       -2
340
0
 93
        0
 40
0.045
309
GRIDFORMAT_END
 95
        2
302
GRIDFORMAT
  1
GRIDFORMAT_BEGIN
 90
        0
 91
        1
 62
     0
 92
       -2
340
0
 93
        0
 40
0.045
309
GRIDFORMAT_END
 95
        4
302
GRIDFORMAT
  1
GRIDFORMAT_BEGIN
 90
        0
 91
        1
 62
     0
 92
       -2
340
0
 93
        0
 40
0.045
309
GRIDFORMAT_END
 95
        8
302
GRIDFORMAT
  1
GRIDFORMAT_BEGIN
 90
        0
 91
        1
 62
     0
 92
       -2
340
0
 93
        0
 40
0.045
309
GRIDFORMAT_END
 95
       16
302
GRIDFORMAT
  1
GRIDFORMAT_BEGIN
 90
        0
 91
        1
 62
     0
 92
       -2
340
0
 93
        0
 40
0.045
309
GRIDFORMAT_END
 95
       32
302
GRIDFORMAT
  1
GRIDFORMAT_BEGIN
 90
        0
 91
        1
 62
     0
 92
       -2
340
0
 93
        0
 40
0.045
309
GRIDFORMAT_END
309
TABLEFORMAT_END
  1
CELLSTYLE_BEGIN
 90
        2
 91
        1
300
_HEADER
309
CELLSTYLE_END
300
CELLSTYLE
  1
TABLEFORMAT_BEGIN
 90
        5
170
     1
 91
        0
 92
        0
 62
   257
 93
        1
300
CONTENTFORMAT
  1
CONTENTFORMAT_BEGIN
 90
        0
 91
        0
 92
      512
 93
        0
300

 40
0.0
140
1.0
 94
        2
 62
     0
340
11
144
0.18
309
CONTENTFORMAT_END
171
     1
301
MARGIN
  1
CELLMARGIN_BEGIN
 40
0.06
 40
0.06
 40
0.06
 40
0.06
 40
0.18
 40
0.18
309
CELLMARGIN_END
 94
        6
 95
        1
302
GRIDFORMAT
  1
GRIDFORMAT_BEGIN
 90
        0
 91
        1
 62
     0
 92
       -2
340
0
 93
        0
 40
0.045
309
GRIDFORMAT_END
 95
        2
302
GRIDFORMAT
  1
GRIDFORMAT_BEGIN
 90
        0
 91
        1
 62
     0
 92
       -2
340
0
 93
        0
 40
0.045
309
GRIDFORMAT_END
 95
        4
302
GRIDFORMAT
  1
GRIDFORMAT_BEGIN
 90
        0
 91
        1
 62
     0
 92
       -2
340
0
 93
        0
 40
0.045
309
GRIDFORMAT_END
 95
        8
302
GRIDFORMAT
  1
GRIDFORMAT_BEGIN
 90
        0
 91
        1
 62
     0
 92
       -2
340
0
 93
        0
 40
0.045
309
GRIDFORMAT_END
 95
       16
302
GRIDFORMAT
  1
GRIDFORMAT_BEGIN
 90
        0
 91
        1
 62
     0
 92
       -2
340
0
 93
        0
 40
0.045
309
GRIDFORMAT_END
 95
       32
302
GRIDFORMAT
  1
GRIDFORMAT_BEGIN
 90
        0
 91
        1
 62
     0
 92
       -2
340
0
 93
        0
 40
0.045
309
GRIDFORMAT_END
309
TABLEFORMAT_END
  1
CELLSTYLE_BEGIN
 90
        3
 91
        2
300
_DATA
309
CELLSTYLE_END
  0
ACAD_PROXY_OBJECT
  5
23E
330
23D
100
AcDbProxyObject
 90
      499
 91
      543
 71
    33
 97
      157
 70
     0
162
                 0
161
               493
310
73CB81E85EB51B8BE3F2E07A17AD46E2F8FE00800030C02000000300012AF841D01405014050140501083C80A0481A0882A0D55554000000000000785FA4
 94
        0
  0
ACAD_PROXY_OBJECT
  5
23F
330
23D
100
AcDbProxyObject
 90
      499
 91
      544
 71
    33
 97
      157
 70
     0
162
                 0
161
               638
310
73CB81E85EB51B8BE3F2E07A17AD46E2F8FE00800030C02000000300012AFA1C80A0280A0280A0280A0280A0280A0280A0284A0280A0280A0280A0280A02400000000000000080000000000000785FA4
340
26A
 94
        0
  0
ACAD_PROXY_OBJECT
  5
240
330
23D
100
AcDbProxyObject
 90
      499
 91
      545
 71
    33
 97
      157
 70
     0
162
                 0
161
               716
310
73CB81E85EB51B8BE3F2E07A17AD46E2F8FE00800030C02000000300012AF98333333333333D33F24080A0280A0280A0280A0280A0280A0280A0280A0280A0280A0280A0280A0280A0280A0280A0280A0243BDF4F8D976EA23FC
340
0
 94
        0
  0
ACAD_PROXY_OBJECT
  5
241
330
23D
100
AcDbProxyObject
 90
      499
 91
      546
 71
    33
 97
      157
 70
     0
162
                 0
161
               315
310
73CB81E85EB51B8BE3F2E07A17AD46E2F8FE00800030C02000000300012AFC0000000000003C2FCC
340
0
 94
        0
  0
ACAD_PROXY_OBJECT
  5
242
330
23D
100
AcDbProxyObject
 90
      499
 91
      547
 71
    33
 97
      157
 70
     0
162
                 0
161
               493
310
73CB81E85EB51B8BE3F2E07A17AD46E2F8FE00800030C02000000300012AFC521D4454FB21E93F26A6666666666E4FE89A9999999999B93F8020000C3004
340
26B
340
26C
 94
        0
  0
ACAD_PROXY_OBJECT
  5
243
330
23D
100
AcDbProxyObject
 90
      499
 91
      548
 71
    33
 97
      157
 70
     0
162
             25878
311
4112401500114013401044900540045004D004CD1C01140138015001480104010C013C00B001140138015400B000C000B0012401500114013400B0011C011401380150014801040150016000B0009401CC00B000A0011C011401380134014C011C0080019C019401B8019001DC019C008000C800C800C800A4029035100540
311
0590040D44015001640132470045004E0054005200410043004F002C0045004E0055002C0030002C005100540059002C00470045004E00540052004100540058002C00250073002C002800470045004E004D00530047002000670065006E0064007700670020003200320033002900A4113801040134011401044E0041004D
311
0045004CD1C01140138015001480104010C013C00B001140138015400B000C000B0013801040134011400B0011C011401380150014801040150016000B0009401CC00B000A0011C011401380134014C011C0080019C019401B8019001DC019C008000C800C800D800A4012C3D004900460028004900530042004C0041004E0
311
04B00280050004100520054003A004E0041004D00450029002C0042004C004F0043004B003A004E0041004D0045002C0050004100520054003A004E0041004D00450029009054400450053004300520042D100114014C010C01480124014001500124013C0138013A470045004E0054005200410043004F002C0045004E005
311
5002C0030002C004400450053004300520049005000540049004F004E002C00470045004E00540052004100540058002C00250073002C002800470045004E004D00530047002000670065006E0064007700670020003200310037002900A4214C015001040138011001040148011001085300540041004E004400410052004
311
4004DD1C01140138015001480104010C013C00B001140138015400B000C000B0014C015001040138011001040148011000B0011C011401380150014801040150016000B0009401CC00B000A0011C011401380134014C011C0080019C019401B8019001DC019C008000C800C400E000A4029084D00410054004500520049004
311
1004C004213401040150011401480124010401300137470045004E0054005200410043004F002C0045004E0055002C0030002C004D004100540045005200490041004C002C00470045004E00540052004100540058002C00250073002C002800470045004E004D00530047002000670065006E006400770067002000320032
311
0031002900A41138013C0150011401044E004F00540045004CD1C01140138015001480104010C013C00B001140138015400B000C000B00138013C0150011400B0011C011401380150014801040150016000B0009401CC00B000A0011C011401380134014C011C0080019C019401B8019001DC019C008000C800C800D400A40
311
2906560045004E0044004F00520041958011401380110013C01480135470045004E0054005200410043004F002C0045004E0055002C0030002C00560045004E0044004F0052002C00470045004E00540052004100540058002C00250073002C002800470045004E004D00530047002000670065006E0064007700670020003
311
200320034002900A419100114014C010C014800C8010D4400450053004300520049005000540049004F004E00200032004ED1C01140138015001480104010C013C00B001140138015400B000C000B001100114014C010C01480124014001500124013C0138008000C800B0011C011401380150014801040150016000B00094
311
01CC00B000A0011C011401380134014C011C0080019C019401B8019001DC019C008000CC00D800A4029095300540041004E00440041005200440032004294C0150010401380110010401480110008000C80139470045004E0054005200410043004F002C0045004E0055002C0030002C005300540041004E00440041005200
311
4400200032002C00470045004E00540052004100540058002C00250073002C002800470045004E004D00530047002000670065006E0064007700670020003200320030002900A42534010401500114014801240104013000C8010A4D004100540045005200490041004C00200032004E11C01140138015001480104010C013
311
C00B001140138015400B000C000B001340104015001140148012401040130008000C800B0011C011401380150014801040150016000B0009401CC00B000A0011C011401380134014C011C0080019C019401B8019001DC019C008000D000C000A4029044D00410053005300411340104014C014C0132470045004E005400520
311
0410043004F002C0045004E0055002C0030002C004D004100530053002C00470045004E00540052004100540058002C00250073002C002800470045004E004D00530047002000670065006E006400770067002000340032002900A42950013C015001040130017C01340104014C014C010A54004F00540041004C0020004D0
311
04100530053004E51C01140138015001480104010C013C00B001140138015400B000C000B00150013C015001040130008001340104014C014C00B0011C011401380150014801040150016000B0009401CC00B000A0011C011401380134014C011C0080019C019401B8019001DC019C008000C800C800E000A401213D004900
311
460028004900530042004C0041004E004B0028004D0041005300530029002C0042004C0041004E004B002C005100540059002A004D004100530053002900905500052004900430045004154001480124010C01140133470045004E0054005200410043004F002C0045004E0055002C0030002C00500052004900430045002C
311
00470045004E00540052004100540058002C00250073002C002800470045004E004D00530047002000670065006E006400770067002000340033002900A40D1001240134010B4D004500410053005500520045004D0045004E0054004E51C01140138015001480104010C013C00B001140138015400B000C000B0013401140
311
104014C015401480114013401140138015000B0011C011401380150014801040150016000B0009401CC00B000A0011C011401380134014C011C0080019C019401B8019001DC019C008000D000D000A40290942004F004D005F0055004E0049005400530041554013801240150014C0134470045004E0054005200410043004
311
F002C0045004E0055002C0030002C0055004E004900540053002C00470045004E00540052004100540058002C00250073002C002800470045004E004D00530047002000670065006E0064007700670020003200340033002900A41CF400F0012401500114013400F801073D003C004900540045004D003E0041CF400F00124
311
01500114013400F801073D003C004900540045004D003E0041CF400F0012401500114013400F801063D003C005100540059003E0041CF400F0012401500114013400F801073D003C004900540045004D003E00910420069006C006C0020006F00660020004D006100740065007200690061006C00415040148012401040130
311
010541005200490041004C0041504014801240104013002901310090B65006100090065006100090045006100630068000A00455CC01C401B4002401CC01C401B40024014C01C401D4018401C8019400800134019401D0019401C80028011C7300710063006D0009007300710063006D000900530071007500610072006500
311
2000430065006E00740069006D0065007400650072000A00459CC01C4019801D0002401CC01C4019801D00024014C01C401D4018401C801940080011801BC01BC01D0002801147300710069006E0009007300710069006E000900530071007500610072006500200049006E000A0043D9C018401B00024019C018401B00024
311
011C018401B001B001BC01B80028010C710074000900710074000900510075006100720074000A0046DB001C40190017C01BC01E8002401B001C40190017C01BC01E80024013001A401C401D401A401900080013C01D401B8018C01940028010A6C0009006C0009004C0069007400650072000A00445B401B0002401B401B0
311
0024013401A401B001B001A401B001A401D0019401C80028010B79006400090079006400090059006100720064000A0042D9801D00024019801D00024011801BC01BC01D00028010B69006E00090069006E00090049006E00630068000A00429B4002401B400240134019401D0019401C80028011163006D00090063006D00
311
0900430065006E00740069006D0065007400650072000A00445B401B4002401B401B40024013401A401B001B001A401B4019401D0019401C80028010C6C00620009006C006200090050006F0075006E0064000A00431BC01E8002401BC01E80024013C01D401B8018C01940028010967000900670009004700720061006D00
311
0A00441B4019C002401B4019C0024013401A401B001B001A4019C01C8018401B40028010A62007800090062007800090042006F0078000A00404B400
161
              6696
310
73CB81E85EB51B8BE3F2E07A17AD46E2F8FE00800030C02000000300012AFA2080A0280A0280A0280D202269349E4B2196C9FA0320240501405014090140501405019011349A4F2590CB64FD0190120280A0280A3880C80C815174B85D2F97CA048080C80901405014051D40640640E883C16030180C064040440480A0280A
310
028EA0320320947077FBFDFEBF7F9FA02202405014050147501901905A0A0B6C1C7480BECFD0190120280A0280A3A80C80C835174B85D2F97CBE47E80C80901405014051D40640641E8BA5C2E97CBE5F23F40640480A0280A028EA03203211441E0B0180C060320202202405014050147501901909A383BFDFEFF5FBFCFD01
310
10120280A0280A3A80C80C8550505B60E3A405F67E80880901405014051D405024050242D03408BA5C2E97CBE5F23F40440480A0280A028EA02812028121881A040542A150A8147A1FA02202405014050147501409014090D409022E970BA5F2F97C8FD0110120280A0280A3A80A0480A048720681174B85D2F97CBE47E80C
310
80901405014051E40640643E8BA5C2E97CBE5F23F40640480A0288254811703D0BD6A3719C7F03C000186000080C566AB55AAD56FB1F959AAD56AB55BEC7E80A03159AAD56AB55BEC7E566AB55AAD56FB1FA0280C4863F1F8BC1E771F9218FC7E2F079DC7E80A031218FC7E2F079DC7E4863F1F8BC1E771FA0281480959AAD
310
56AB55BEC7E566AB55AAD56FB1FA0280A03159AAD56AB55BEC7E566AB55AAD56FB1FA0280C269349E4B219749F89A4D2792C865D27E80A0200566AB55AAD56FB1F959AAD56AB55BEC7F48400000000000010408000000C000B4FFFF4110340D024090140510429084410190A4064229014290A4290A40A000000000000785F
310
8000000000001E17E80C0100006180403800061801B39DEEA7C74B567E6CE77BA9F1D2D59F9B39DEEA7C74B567E5578E926B108541F877BE9F1B2EDD247E5578E926B108541F9B39DEEA7C74B567E5578E926B108541F877BE9F1B2EDD247E5578E926B108541F9703D0BD6A3717C7F40501409069014090541D064069703D
310
0BD6A3717C7F0040001860100400018601002000186005228817F3FFFCFFFF3FFFC80A0280A2A80A0280A0280A0280A0280A0280A0280A0280A0280A0280A0280C80D0640905419074390F00
340
15
340
0
340
11
340
11
340
16
340
16
340
16
 94
        0
  0
ACAD_PROXY_OBJECT
  5
244
330
23D
100
AcDbProxyObject
 90
      499
 91
      549
 71
    33
 97
      157
 70
     0
162
                 0
161
               279
310
73CB81E85EB51B8CE3F2E07A17AD46E338FE07800030C0200C00030C0123C9FE3E0000
340
26D
 94
        0
  0
ACAD_PROXY_OBJECT
  5
268
330
23D
100
AcDbProxyObject
 90
      499
 91
      562
 71
    33
 97
      157
 70
     0
162
                 0
161
               247
310
73CB81E85EB51B8CE3F2E07A17AD46E338FE00000030002000000300012A04
340
1AC
 94
        0
  0
ACAD_PROXY_OBJECT
  5
245
330
23D
100
AcDbProxyObject
 90
      499
 91
      550
 71
    33
 97
      157
 70
     0
162
                 0
161
               279
310
73CB81E85EB51B8CE3F2E07A17AD46E338FE07800030C0201C00030C012AE9FE0E0000
340
273
 94
        0
  0
ACAD_PROXY_OBJECT
  5
267
330
23D
100
AcDbProxyObject
 90
      499
 91
      561
 71
    33
 97
      157
 70
     0
162
                 0
161
               247
310
73CB81E85EB51B8CE3F2E07A17AD46E338FE00000030002000000300012A04
340
1AA
 94
        0
  0
ACAD_PROXY_OBJECT
  5
246
330
23D
100
AcDbProxyObject
 90
      499
 91
      551
 71
    33
 97
      157
 70
     0
162
                 0
161
               516
310
73CB81E85EB51B8BE3F2E07A17AD46E2F8FE00800030C02000000300012AF8570E2DB39DEF867E14AE47E17A945E1F852B91F85EA51787F4333333333333F33FAC
 94
        0
  0
ACAD_PROXY_OBJECT
  5
247
330
23D
100
AcDbProxyObject
 90
      499
 91
      552
 71
    33
 97
      157
 70
     0
162
                 0
161
               249
310
73CB81E85EB51B8BE3F2E07A17AD46E2F8FE00800030C02000000300012AFCCC
340
0
 94
        0
  0
ACAD_PROXY_OBJECT
  5
248
330
23D
100
AcDbProxyObject
 90
      499
 91
      553
 71
    33
 97
      157
 70
     0
162
             17300
311
42950019401B401C001B0018401D00194008000C40005013D003C0069006600280065007100750061006C00280048006F006C0065003A007400610070007000650064002C0022003000220029002C00220025002500630022002C0048006F006C0065003A006E006F006D0069006E0061006C0020002200200022002000690
311
06600280065007100750061006C00280048006F006C0065003A0075006E006900740073002C0022003100220029002C002200780022002C0022002D0022002900200022002000220029003E003C0069006600280065007100750061006C00280048006F006C0065003A007400610070007000650064002C002200300022002
311
9002C0048006F006C0065003A006400690061002C0048006F006C0065003A0070006900740063006800640065007300630029003E0020007B005C00460041004D004700440054003B0078007D0020003C0069006600280065007100750061006C00280048006F006C0065003A007400650072006D0069006E0061007400690
311
06F006E002C0022003000220029002C0048006F006C0065003A00640065007000740068002C0022005400480052005500220029003E005C0050007B005C00460041004D004700440054003B0076007D002500250063003C0048006F006C0065003A00630074006400690061003E0020007B005C00460041004D00470044005
311
4003B0078007D0020003C0048006F006C0065003A0063007400640065007000740068003E0042950019401B401C001B0018401D00194008000C401FE3D003C0069006600280065007100750061006C00280048006F006C0065003A007400610070007000650064002C0022003000220029002C00220025002500630022002C
311
0048006F006C0065003A006E006F006D0069006E0061006C002000220020002200200069006600280065007100750061006C00280048006F006C0065003A0075006E006900740073002C0022003100220029002C002200780022002C0022002D0022002900200022002000220029003E003C00690066002800650071007500
311
61006C00280048006F006C0065003A007400610070007000650064002C0022003000220029002C0048006F006C0065003A006400690061002C0048006F006C0065003A0070006900740063006800640065007300630029003E0020007B005C00460041004D004700440054003B0078007D0020003C00690066002800650071
311
00750061006C00280048006F006C0065003A007400650072006D0069006E006100740069006F006E002C0022003000220029002C0048006F006C0065003A00640065007000740068002C0022005400480052005500220029003E005C0050007B005C00460041004D004700440054003B0077007D002500250063003C004800
311
6F006C0065003A00630074006400690061003E002000580020003C0048006F006C0065003A006300740061006E0067006C0065003E0025002500640042950019401B401C001B0018401D00194008000C401CF3D003C0069006600280065007100750061006C00280048006F006C0065003A007400610070007000650064002
311
C0022003000220029002C00220025002500630022002C0048006F006C0065003A006E006F006D0069006E0061006C002000220020002200200069006600280065007100750061006C00280048006F006C0065003A0075006E006900740073002C0022003100220029002C002200780022002C0022002D00220029002000220
311
02000220029003E003C0069006600280065007100750061006C00280048006F006C0065003A007400610070007000650064002C0022003000220029002C0048006F006C0065003A006400690061002C0048006F006C0065003A0070006900740063006800640065007300630029003E005C0050007B005C00460041004D004
311
700440054003B0078007D0020003C0069006600280065007100750061006C00280048006F006C0065003A007400650072006D0069006E006100740069006F006E002C0022003000220029002C0048006F006C0065003A00640065007000740068002C0022005400480052005500220029003E0042950019401B401C001B001
311
8401D00194008000C401EA3D003C0069006600280065007100750061006C00280048006F006C0065003A007400610070007000650064002C0022003000220029002C00220025002500630022002C0048006F006C0065003A006E006F006D0069006E0061006C00200022002000220020006900660028006500710075006100
311
6C00280048006F006C0065003A0075006E006900740073002C0022003100220029002C002200780022002C0022002D0022002900200022002000220029003E003C0069006600280065007100750061006C00280048006F006C0065003A007400610070007000650064002C0022003000220029002C0048006F006C0065003A
311
006400690061002C0048006F006C0065003A0070006900740063006800640065007300630029003E0020007B005C00460041004D004700440054003B0078007D0020003C0069006600280065007100750061006C00280048006F006C0065003A007400650072006D0069006E006100740069006F006E002C00220030002200
311
29002C0048006F006C0065003A00640065007000740068002C0022005400480052005500220029003E005C0050007B005C00460041004D004700440054003B0077007D002500250063003C0048006F006C0065003A00630074006400690061003E0042950019401B401C001B0018401D00194008000C801173D003C0053005
311
400440050003A0044004500530043003E0020003C0053005400440050003A005300540044003E0042950019401B401C001B0018401D00194008000C4010C3D003C0053005400440050003A0044004500530043003E0042950019401B401C001B0018401D00194008000CC010B3D003C0053005400440050003A00530054004
311
4003E00C
161
               732
310
73CB81E85EB51B8BE3F2E07A17AD46E2F8FE00800030C02000000300012AFA1280A17480A15480A0480A0280E9014050340501407480A0280A0280A03A4050141D0140501D20280A3C81A0280E901405480A02A40D01456AAB9F503C
360
27F
330
27F
360
280
330
280
360
27E
330
27E
360
281
330
281
360
27C
360
27B
360
27D
330
27C
330
27B
330
27D
 94
        0
  0
ACAD_PROXY_OBJECT
  5
249
330
23D
100
AcDbProxyObject
 90
      499
 91
      554
 71
    33
 97
      157
 70
     0
162
                26
311
404E800C
161
               305
310
73CB81E85EB51B8BE3F2E07A17AD46E2F8FE00800030C02000000300012AFA1680A0280D55554C
 94
        0
  0
ACAD_PROXY_OBJECT
  5
24A
330
23D
100
AcDbProxyObject
 90
      499
 91
      555
 71
    33
 97
      157
 70
     0
162
              1098
311
510F400F0014C015001480154010C015000E8010C013C01340140017C013801040134011400F8008000F0014C015001480154010C015000E8015801240114015C017C013801040134011400F80080015801240114015C01700140014C010C010401300114008000F0014C015001480154010C015000E8014C0158017C014C0
311
10C01040130011400F800C
161
               332
310
73CB81E85EB51B8CE3F2E07A17AD46E2F8FE07800030C02000000300012AFA02808000000000001D07FC
340
11
 94
        0
  0
ACAD_PROXY_OBJECT
  5
24B
330
23D
100
AcDbProxyObject
 90
      499
 91
      556
 71
    33
 97
      157
 70
     0
162
                 0
161
               261
310
73CB81E85EB51B8BE3F2E07A17AD46E2F8FE00800030C02000000300012AFA0754
340
24F
 94
        0
  0
ACAD_PROXY_OBJECT
  5
24C
330
23D
100
AcDbProxyObject
 90
      499
 91
      557
 71
    33
 97
      157
 70
     0
162
               142
311
408F000F801023C003E0040DB0018C00CC00
161
               408
310
73CB81E85EB51B8BE3F2E07A17AD46E2F8FE00800030C02000000300012AFA08000000000000701F8000000000001C07E7FFFC00
340
24D
340
0
340
0
340
25C
340
25D
340
0
340
25E
340
25F
340
264
340
0
340
25D
340
0
 94
        0
  0
ACAD_PROXY_OBJECT
  5
265
330
23D
100
AcDbProxyObject
 90
      499
 91
      559
 71
    33
 97
      157
 70
     0
162
             20912
311
44D300124014C01500080013C01180080010C013C013C0148011001240138010401500114014C0142470045004E0054005200410043004F002C0045004E0055002C0030002C004C0049005300540020004F004600200043004F004F005200440049004E0041005400450053002C00470045004E00540052004100540058002
311
C00250073002C002800470045004E004D00530047002000670065006E00640069006D007A00200033003000290043CF400F0011001940198018401D401B001D0015001A401D001B0019400F8010A48004F004C00450020005400410042004C0045004E51C01140138015001480104010C013C00B001140138015400B000C00
311
0B00120013C0130011400800150010401080130011400B0011C011401380150014801040150016000B0009401CC00B000A0011C011401380134014C011C0080019C019401B8019001A401B401E8008000CC00C400A4010F3D003C00440065006600610075006C0074005400690074006C0065003E004193C01480124011C01
311
2401380134470045004E0054005200410043004F002C0045004E0055002C0030002C004F0052004900470049004E002C00470045004E00540052004100540058002C00250073002C002800470045004E004D00530047002000670065006E00640069006D007A002000310029004193C01480124011C0124013801344700450
311
04E0054005200410043004F002C0045004E0055002C0030002C004F0052004900470049004E002C00470045004E00540052004100540058002C00250073002C002800470045004E004D00530047002000670065006E00640069006D007A0020003100290041120013C013001140132470045004E0054005200410043004F00
311
2C0045004E0055002C0030002C0048004F004C0045002C00470045004E00540052004100540058002C00250073002C002800470045004E004D00530047002000670065006E00640069006D007A00200032002900538F400F00124011800A00124014C0108013001040138012C00A0012001BC01B00194012401D0019401B40
311
0A400B0013C01C801A4019C01A401B800B00080012001BC01B00194012401D0019401B400A400F800F00124011800A00124014C0108013001040138012C00A0012001BC01B00194012401D0019401B400A400B00088008800B00080012001BC01B00194012401B80190019401E000A400F8010158004BD1C01140138015001
311
480104010C013C00B001140138015400B000C000B0016000B0011C011401380150014801040150016000B0009401CC00B000A0011C011401380134014C011C0080019C019401B8019001A401B401E8008000CC00A4010159004BD1C01140138015001480104010C013C00B001140138015400B000C000B0016400B0011C011
311
401380150014801040150016000B0009401CC00B000A0011C011401380134014C011C0080019C019401B8019001A401B401E8008000D000A4010152004BD1C01140138015001480104010C013C00B001140138015400B000C000B0014800B0011C011401380150014801040150016000B0009401CC00B000A0011C01140138
311
0134014C011C0080019C019401B8019001A401B401E8008000D800A401187B005C004600530059004D0042004F004C007C00420030007C00490030007C00430032007C00500030003B004A007D005191C01140138015001480104010C013C00B001140138015400B000C000B001EC01700118014C016401340108013C01300
311
1F0010800C001F0012400C001F0010C00C801F0014000C000EC012801F400B0011C011401380150014801040150016000B0009401CC00B000A0011C011401380134014C011C0080019C019401B8019001A401B401E8008000DC00A401032500250043004C51C01140138015001480104010C013C00B001140138015400B000
311
C000B000940094010C00B0011C011401380150014801040150016000B0009401CC00B000A0011C011401380134014C011C0080019C019401B8019001A401B401E8008000E000A4010B4400450053004300520049005000540049004F004E004E91C01140138015001480104010C013C00B001140138015400B000C000B0011
311
00114014C010C01480124014001500124013C013800B0011C011401380150014801040150016000B0009401CC00B000A0011C011401380134014C011C0080019C019401B8019001A401B401E8008000C800C000A401044900540045004D004CD1C01140138015001480104010C013C00B001140138015400B000C000B00124
311
01500114013400B0011C011401380150014801040150016000B0009401CC00B000A0011C011401380134014C011C0080019C019401B8019001A401B401E8008000C400D000A4010549004E004400450058004D11C01140138015001480104010C013C00B001140138015400B000C000B00124013801100114016000B0011C0
311
11401380150014801040150016000B0009401CC00B000A0011C011401380134014C011C0080019C019401B8019001A401B401E8008000C400D400A4010448004F004C0045004CD1C01140138015001480104010C013C00B001140138015400B000C000B00120013C0130011400B0011C011401380150014801040150016000
311
B0009401CC00B000A0011C011401380134014C011C0080019C019401B8019001A401B401E8008000C400D800A4010A48004F004C004500200049004E004400450058004E51C01140138015001480104010C013C00B001140138015400B000C000B00120013C0130011400800124013801100114016000B0011C01140138015
311
0014801040150016000B0009401CC00B000A0011C011401380134014C011C0080019C019401B8019001A401B401E8008000C400DC00A40109550053004500520020004900540045004D004E11C01140138015001480104010C013C00B001140138015400B000C000B00154014C011401480080012401500114013400B0011C
311
011401380150014801040150016000B0009401CC00B000A0011C011401380134014C011C0080019C019401B8019001A401B401E8008000C800C800A401035100540059004C91C01140138015001480104010C013C00B001140138015400B000C000B001440150016400B0011C011401380150014801040150016000B000940
311
1CC00B000A0011C011401380134014C011C0080019C019401B8019001A401B401E8008000C400E400A401085300540041004E0044004100520044004DD1C01140138015001480104010C013C00B001140138015400B000C000B0014C015001040138011001040148011000B0011C011401380150014801040150016000B000
311
9401CC00B000A0011C011401380134014C011C0080019C019401B8019001A401B401E8008000C800C400A4014E3D003C004900460028004900530042004C0041004E004B00280048006F006C0065004900740065006D0029002C004F0072006900670069006E002C00200048006F006C0065004900740065006D0029003E00
311
3C004900460028004900530042004C0041004E004B00280048006F006C0065004900740065006D0029002C00220022002C00200048006F006C00650049006E0064006500780029003E00CC
161
              7105
310
73CB81E85EB51B8BE3F2E07A17AD46E2F8FE00800030C02000000300012AFA46347FFFFFFFA020600005C0F42F5A8DC5F1FC01000061806808180001703D0BD6A3717C7F004000186018080F0201800000000000000000000000000000000F6295C8FC2F5487E5C0F42F5A8DC5F1FC01000061800F6295C8FC2F5487E5C0F4
310
2F5A8DC5F1FC0100006180403F8080F0201800000000000000000000000000000000F6295C8FC2F5487E5C0F42F5A8DC5F1FC01000061800F6295C8FC2F5487E5C0F42F5A8DC5F1FC0100006180403FA1C8821E88A0481A0882A0E862028722489A2A82A2483A288621A880000808000808200110A000101000101040021F4
310
0002020202020800446800040400040400008150000808000808000103A0001010001010000209400020200020206004168000404000404040083D000080800080020010CA0001010001010500A0340002020002020A0143A800040400040410008950000808000808280113A000101000101050022B40002020002020C004
310
528000404000400100086D22000CFFFFFFFF0026A6666666667A4FE7FFFFFFF819353333333333D27F3FFFFFFFC049A9999999999E93F9FFFFFFFE024D4CCCCCCCCCF49FCFFFFFFFF0226A6666666667A4FE7FFFFFFF811353333333333D27F3FFFFFFFC0D9FFFFFFFE0600000000000000204FFFFFFFF0026A66666666676
310
4FE7FFFFFFF801353333333333D27F3FFFFFFFC009A9999999999E93F9FFFFFFFE004D4CCCCCCCCCF49FCFFFFFFFF0026A6666666667A4FE7FFFFFFF819703D0BD6A371BC7F3FFFFFFFC0C67666666666606409FFFFFFFE880033FFFFFFFC009A9999999999E93F9FFFFFFFE064D4CCCCCCCCCF49FCFFFFFFFF0326A666666
310
6667A4FE7FFFFFFF819353333333333D27F3FFFFFFFC0C9A9999999999E93F9FFFFFFFE064D4CCCCCCCCCF49FCFFFFFFFF0367FFFFFFF81800000000000000813FFFFFFFC009A9999999999D93F9FFFFFFFE004D4CCCCCCCCCF49FCFFFFFFFF0326A6666666667A4FE7FFFFFFF801353333333333D27F3FFFFFFFC009A9999
310
999999E93F9FFFFFFFE065C0F42F5A8DC6F1FCFFFFFFFF0319D999999999819027FFFFFFFA088800000021E000000890000002260000008220E00020089000000206000200810000801FFFFFFFE812020002822200000008780000022400000089800000206000082220000000878000002240000008A8000001FFFFFFFF4C
340
0
340
0
340
0
340
0
340
11
340
11
 94
        0
  0
ACAD_PROXY_OBJECT
  5
266
330
23D
100
AcDbProxyObject
 90
      499
 91
      560
 71
    33
 97
      157
 70
     0
162
             10568
311
411040138014C0124010641004E00530049005F004300429040138014C0124017C0150012401500154014C011541004E00530049005F00420052005F005200650076006900730069006F006E006C00690073007400610044104008000A000E000B800D401E000C400C400B800C001A401B8018C01A000A4010641004E00530
311
049005F00410044518008000A000C800E000B800C001E000D000C000B800C001A401B8018C01A000A4010641004E00530049005F00460044514008000A000CC00D000B800C001E000D000D000B800C001A401B8018C01A000A4010641004E00530049005F00450044510008000A000C800C800B800C001E000CC00D000B800
311
C001A401B8018C01A000A4010641004E00530049005F00440044508008000A000C400C400B800C001E000C400DC00B800C001A401B8018C01A000A4010641004E00530049005F0042004450C008000A000C400DC00B800C001E000C800C800B800C001A401B8018C01A000A4010641004E00530049005F00430044D0401B80
311
1CC01A40080015001A401D001B001940080010801B001BC018C01AC00800110010C010C41004E00530049005F005400490054004C0045004400430044D0401B801CC01A40080015001A401D001B001940080010801B001BC018C01AC00800104010C010C41004E00530049005F005400490054004C00450041004300439540
311
14C0080015001A401D001B001940080010801B001BC018C01AC010A41004E00530049005F00540049005400550053004490401B801CC01A40080015001A401D001B001940080010801B001BC018C01AC00800110010B41004E00530049005F005400490054004C00450044004490401B801CC01A40080015001A401D001B00
311
1940080010801B001BC018C01AC00800104010B41004E00530049005F005400490054004C004500410044948019401D801A401CC01A401BC01B801B001A401CC01D000800110017C01080148017C011541004E00530049005F00420052005F005200650076006900730069006F006E006C0069007300740064004494801940
311
1D801A401CC01A401BC01B801B001A401CC01D000800110017C01500148017C011541004E00530049005F00540052005F005200650076006900730069006F006E006C00690073007400640044948019401D801A401CC01A401BC01B801B001A401CC01D000800104017C01080148017C011541004E00530049005F00420052
311
005F005200650076006900730069006F006E006C00690073007400610044948019401D801A401CC01A401BC01B801B001A401CC01D000800104017C01500148017C011541004E00530049005F00540052005F005200650076006900730069006F006E006C00690073007400610044948019401D801A401CC01A401BC01B801
311
B001A401CC01D000800110017C01080130017C011541004E00530049005F0042004C005F005200650076006900730069006F006E006C00690073007400640044948019401D801A401CC01A401BC01B801B001A401CC01D000800110017C01500130017C011541004E00530049005F0054004C005F005200650076006900730
311
069006F006E006C00690073007400640044948019401D801A401CC01A401BC01B801B001A401CC01D000800104017C01080130017C011541004E00530049005F0042004C005F005200650076006900730069006F006E006C00690073007400610044948019401D801A401CC01A401BC01B801B001A401CC01D000800104017
311
C01500130017C011541004E00530049005F0054004C005F005200650076006900730069006F006E006C006900730074006100A00
161
               498
310
73CB81E85EB51B8BE3F2E07A17AD46E2F8FE00800030C02000000300012AFB2E8320A84205400000000002015900000000000000324000000000000007100C
 94
        0
  0
FIELD
  5
276
102
{ACAD_REACTORS
330
275
102
}
330
275
100
AcDbField
  1
_text
  2
%<\_FldIdx 0>% %<\_FldIdx 1>%-%<\_FldIdx 2>%
 90
        3
360
277
360
279
360
27A
 97
        0
 91
       63
 92
        0
 94
        9
 95
        2
 96
        0
300

 93
        0
  7
ACFD_FIELD_VALUE
 93
        3
 90
        0
 94
        0
300

302

304
ACVALUE_END
301

 98
        0
  0
ACAD_PROXY_OBJECT
  5
27F
330
0
100
AcDbProxyObject
 90
      499
 91
      565
 71
    33
 97
      157
 70
     0
162
              4364
311
42950019401B401C001B0018401D00194008000C40005013D003C0069006600280065007100750061006C00280048006F006C0065003A007400610070007000650064002C0022003000220029002C00220025002500630022002C0048006F006C0065003A006E006F006D0069006E0061006C0020002200200022002000690
311
06600280065007100750061006C00280048006F006C0065003A0075006E006900740073002C0022003100220029002C002200780022002C0022002D0022002900200022002000220029003E003C0069006600280065007100750061006C00280048006F006C0065003A007400610070007000650064002C002200300022002
311
9002C0048006F006C0065003A006400690061002C0048006F006C0065003A0070006900740063006800640065007300630029003E0020007B005C00460041004D004700440054003B0078007D0020003C0069006600280065007100750061006C00280048006F006C0065003A007400650072006D0069006E0061007400690
311
06F006E002C0022003000220029002C0048006F006C0065003A00640065007000740068002C0022005400480052005500220029003E005C0050007B005C00460041004D004700440054003B0076007D002500250063003C0048006F006C0065003A00630074006400690061003E0020007B005C00460041004D00470044005
311
4003B0078007D0020003C0048006F006C0065003A0063007400640065007000740068003E00C
161
                29
310
73E0101C
 94
        0
  0
ACAD_PROXY_OBJECT
  5
280
330
0
100
AcDbProxyObject
 90
      499
 91
      565
 71
    33
 97
      157
 70
     0
162
              4244
311
42950019401B401C001B0018401D00194008000C401FE3D003C0069006600280065007100750061006C00280048006F006C0065003A007400610070007000650064002C0022003000220029002C00220025002500630022002C0048006F006C0065003A006E006F006D0069006E0061006C002000220020002200200069006
311
600280065007100750061006C00280048006F006C0065003A0075006E006900740073002C0022003100220029002C002200780022002C0022002D0022002900200022002000220029003E003C0069006600280065007100750061006C00280048006F006C0065003A007400610070007000650064002C00220030002200290
311
02C0048006F006C0065003A006400690061002C0048006F006C0065003A0070006900740063006800640065007300630029003E0020007B005C00460041004D004700440054003B0078007D0020003C0069006600280065007100750061006C00280048006F006C0065003A007400650072006D0069006E006100740069006
311
F006E002C0022003000220029002C0048006F006C0065003A00640065007000740068002C0022005400480052005500220029003E005C0050007B005C00460041004D004700440054003B0077007D002500250063003C0048006F006C0065003A00630074006400690061003E002000580020003C0048006F006C0065003A0
311
06300740061006E0067006C0065003E00250025006400C
161
                29
310
73E0101C
 94
        0
  0
ACAD_PROXY_OBJECT
  5
27E
330
0
100
AcDbProxyObject
 90
      499
 91
      565
 71
    33
 97
      157
 70
     0
162
              3492
311
42950019401B401C001B0018401D00194008000C401CF3D003C0069006600280065007100750061006C00280048006F006C0065003A007400610070007000650064002C0022003000220029002C00220025002500630022002C0048006F006C0065003A006E006F006D0069006E0061006C002000220020002200200069006
311
600280065007100750061006C00280048006F006C0065003A0075006E006900740073002C0022003100220029002C002200780022002C0022002D0022002900200022002000220029003E003C0069006600280065007100750061006C00280048006F006C0065003A007400610070007000650064002C00220030002200290
311
02C0048006F006C0065003A006400690061002C0048006F006C0065003A0070006900740063006800640065007300630029003E005C0050007B005C00460041004D004700440054003B0078007D0020003C0069006600280065007100750061006C00280048006F006C0065003A007400650072006D0069006E00610074006
311
9006F006E002C0022003000220029002C0048006F006C0065003A00640065007000740068002C0022005400480052005500220029003E00C
161
                29
310
73E0101C
 94
        0
  0
ACAD_PROXY_OBJECT
  5
281
330
0
100
AcDbProxyObject
 90
      499
 91
      565
 71
    33
 97
      157
 70
     0
162
              3924
311
42950019401B401C001B0018401D00194008000C401EA3D003C0069006600280065007100750061006C00280048006F006C0065003A007400610070007000650064002C0022003000220029002C00220025002500630022002C0048006F006C0065003A006E006F006D0069006E0061006C002000220020002200200069006
311
600280065007100750061006C00280048006F006C0065003A0075006E006900740073002C0022003100220029002C002200780022002C0022002D0022002900200022002000220029003E003C0069006600280065007100750061006C00280048006F006C0065003A007400610070007000650064002C00220030002200290
311
02C0048006F006C0065003A006400690061002C0048006F006C0065003A0070006900740063006800640065007300630029003E0020007B005C00460041004D004700440054003B0078007D0020003C0069006600280065007100750061006C00280048006F006C0065003A007400650072006D0069006E006100740069006
311
F006E002C0022003000220029002C0048006F006C0065003A00640065007000740068002C0022005400480052005500220029003E005C0050007B005C00460041004D004700440054003B0077007D002500250063003C0048006F006C0065003A00630074006400690061003E00C
161
                29
310
73E0101C
 94
        0
  0
ACAD_PROXY_OBJECT
  5
27C
330
0
100
AcDbProxyObject
 90
      499
 91
      565
 71
    33
 97
      157
 70
     0
162
               548
311
42950019401B401C001B0018401D00194008000C801173D003C0053005400440050003A0044004500530043003E0020003C0053005400440050003A005300540044003E00C
161
                29
310
73E01014
 94
        0
  0
ACAD_PROXY_OBJECT
  5
27B
330
0
100
AcDbProxyObject
 90
      499
 91
      565
 71
    33
 97
      157
 70
     0
162
               372
311
42950019401B401C001B0018401D00194008000C4010C3D003C0053005400440050003A0044004500530043003E00C
161
                29
310
73E0101C
 94
        0
  0
ACAD_PROXY_OBJECT
  5
27D
330
0
100
AcDbProxyObject
 90
      499
 91
      565
 71
    33
 97
      157
 70
     0
162
               356
311
42950019401B401C001B0018401D00194008000CC010B3D003C0053005400440050003A005300540044003E00C
161
                29
310
73E01014
 94
        0
  0
FIELD
  5
277
330
276
100
AcDbField
  1
AcVar
  2
\AcVar ViewType \f "%tc1"
 90
        0
 97
        0
 91
       63
 92
        0
 94
       43
 95
        2
 96
        0
300

 93
        1
  6
Variable
 93
        2
 90
        4
  1
ViewType
 94
        0
300

302

304
ACVALUE_END
  7
ACFD_FIELD_VALUE
 93
        1
 90
        0
 94
        0
300
%tc1
302

304
ACVALUE_END
301
----
 98
        4
  0
FIELD
  5
279
330
276
100
AcDbField
  1
AcVar
  2
\AcVar ViewSectionStartId
 90
        0
 97
        0
 91
       63
 92
        0
 94
       43
 95
        2
 96
        0
300

 93
        1
  6
Variable
 93
        2
 90
        4
  1
ViewSectionStartId
 94
        0
300

302

304
ACVALUE_END
  7
ACFD_FIELD_VALUE
 93
        1
 90
        0
 94
        0
300

302

304
ACVALUE_END
301
----
 98
        4
  0
FIELD
  5
27A
330
276
100
AcDbField
  1
AcVar
  2
\AcVar ViewSectionEndId
 90
        0
 97
        0
 91
       63
 92
        0
 94
       43
 95
        2
 96
        0
300

 93
        1
  6
Variable
 93
        2
 90
        4
  1
ViewSectionEndId
 94
        0
300

302

304
ACVALUE_END
  7
ACFD_FIELD_VALUE
 93
        1
 90
        0
 94
        0
300

302

304
ACVALUE_END
301
----
 98
        4
  0
ENDSEC
  0
SECTION
  2
ACDSDATA
 70
     2
 71
     8
  0
ACDSSCHEMA
 90
        0
  1
AcDb_Thumbnail_Schema
  2
AcDbDs::ID
280
    10
 91
        8
  2
Thumbnail_Data
280
    15
 91
        0
101
ACDSRECORD
 95
        0
 90
        1
  2
AcDbDs::TreatedAsObjectData
280
     1
291
     1
101
ACDSRECORD
 95
        0
 90
        2
  2
AcDbDs::Legacy
280
     1
291
     1
101
ACDSRECORD
  1
AcDbDs::ID
 90
        3
  2
AcDs:Indexable
280
     1
291
     1
101
ACDSRECORD
  1
AcDbDs::ID
 90
        4
  2
AcDbDs::HandleAttribute
280
     7
282
     1
  0
ACDSSCHEMA
 90
        1
  1
AcDbDs::TreatedAsObjectDataSchema
  2
AcDbDs::TreatedAsObjectData
280
     1
 91
        0
  0
ACDSSCHEMA
 90
        2
  1
AcDbDs::LegacySchema
  2
AcDbDs::Legacy
280
     1
 91
        0
  0
ACDSSCHEMA
 90
        3
  1
AcDbDs::IndexedPropertySchema
  2
AcDs:Indexable
280
     1
 91
        0
  0
ACDSSCHEMA
 90
        4
  1
AcDbDs::HandleAttributeSchema
  2
AcDbDs::HandleAttribute
280
     7
 91
        1
284
     1
  0
ACDSRECORD
 90
        0
  2
AcDbDs::ID
280
    10
320
59
  2
Thumbnail_Data
280
    15
 94
     3016
310
89504E470D0A1A0A0000000D49484452000000C500000100080300000034B4427100000300504C5445FFFFFFFFFFFFFFFFFF0000000000000000000000000000000000000000000000000000330000660000990000CC0000FF0033000033330033660033990033CC0033FF0066000066330066660066990066CC0066FF0099
310
000099330099660099990099CC0099FF00CC0000CC3300CC6600CC9900CCCC00CCFF00FF0000FF3300FF6600FF9900FFCC00FFFF3300003300333300663300993300CC3300FF3333003333333333663333993333CC3333FF3366003366333366663366993366CC3366FF3399003399333399663399993399CC3399FF33CC00
310
33CC3333CC6633CC9933CCCC33CCFF33FF0033FF3333FF6633FF9933FFCC33FFFF6600006600336600666600996600CC6600FF6633006633336633666633996633CC6633FF6666006666336666666666996666CC6666FF6699006699336699666699996699CC6699FF66CC0066CC3366CC6666CC9966CCCC66CCFF66FF0066
310
FF3366FF6666FF9966FFCC66FFFF9900009900339900669900999900CC9900FF9933009933339933669933999933CC9933FF9966009966339966669966999966CC9966FF9999009999339999669999999999CC9999FF99CC0099CC3399CC6699CC9999CCCC99CCFF99FF0099FF3399FF6699FF9999FFCC99FFFFCC0000CC00
310
33CC0066CC0099CC00CCCC00FFCC3300CC3333CC3366CC3399CC33CCCC33FFCC6600CC6633CC6666CC6699CC66CCCC66FFCC9900CC9933CC9966CC9999CC99CCCC99FFCCCC00CCCC33CCCC66CCCC99CCCCCCCCCCFFCCFF00CCFF33CCFF66CCFF99CCFFCCCCFFFFFF0000FF0033FF0066FF0099FF00CCFF00FFFF3300FF3333
310
FF3366FF3399FF33CCFF33FFFF6600FF6633FF6666FF6699FF66CCFF66FFFF9900FF9933FF9966FF9999FF99CCFF99FFFFCC00FFCC33FFCC66FFCC99FFCCCCFFCCFFFFFF00FFFF33FFFF66FFFF99FFFFCCFFFFFF0000000D0D0D1A1A1A2828283535354343435050505D5D5D6B6B6B787878868686939393A1A1A1AEAEAEBB
310
BBBBC9C9C9D6D6D6E4E4E4F1F1F1FFFFFF000000000000000000000000000000000000000000000000000000000000AD4AB4E4000007174944415478DAED9D6D96733014C773CE2CC0366603F6633FCF7E7CF4A53B512F41946A16F02468A9772D72AFC91D33D5A0C7CFCD3FF74A1343D8198CB0F80446183983690A4DA129
310
3485A6D0147F9322FBD85C05364AF1E9A5C8145CFE090A5E94F6A85E38520A66FABEE90796295F830C2705B77EFC203083D834CDC0FB4939E1F6BD208F77A79465907D91F941CEC29086F45FE69B36792441406F2C696314B128CB40EB22F2D2D893C6122F213C35D3BB45A955E459F1B88B3FC213CCBCE596F5B06F36B7ED
310
5CB8A52880514867642C8AA3F4E69B05E134E2DCCEA22809838899D4B41EE4416359760BC390D120A249613168143CB90A2F50E911B1E51126FC1F8DC2C0B404839FA5264B99C9784A290DD330F4AD82D12CCCA05110DBF7432FF0222F94B547F8E26EF9A6E9512B8A82223345ED0A629E47BEEFC79165FE2376105370354A
310
38C3BB0A8AABF74FBE497D96459E1906C92D490445707F14CC4C33EAD3304B587013A07EC2C15110DBFCF1C29F1FFA281BD524082DCB62290D935B5CDC2DE1A04296C5B788D22C1647302F23F02838BB5EC3AB97558DAB08E60F5E70F1C2F983F00ACD2EC48A88EF3290F0841600294821AA8B67157779C6B33908BF53111B
310
01521011047211053A01FBEDB5D9C6E57E10298ABC6D59FD3B66364C0A2E82F45D2CCF1FB9BC97BCFD40F545570C9CCC290416C5C70689C2C574ABAD293485A6004CE1C0A2701CD7A9CDBD382F8B06D63EB3EE27EDE40B79685EAE5C9CFA3A1B46F4DA1C7DE98A814FDA89A284C8915354106B7C418052E40439450D018C62
310
4DBFFB0A75F78F544DB1C9370FD07C916B756B75AB8DDD702972E02DEDA20C2427F0293E6F56B1F86248DDCD41786AD439D4BD3A33871AF5D0C7EE1A027F4EFB77327360141D8E8EBAE5663414337BE0F3C5BBBA51F902BCBAD7D9AFC4BA5CC49FDF9A82618C17F27BCA8B34D414BF794E4A8E9A627EE2C7AAD1A30751480C
310
69649482B457484D02CD17A44521E4B1681E0EC41AF5A4A8DAAF2D190E6BA32A7DE7556B7580BADD7D72DA971D122FA6C6367F9B99CB8F3E28EAB95BC56EF73D768B820363F74E14EEB199F90E14D59B43EFBBB7A6A873F483EFBB3FA3186F9BD4DC777F45315AAB8ECECCB7F585AAFB6EF714BD6AEE297AD5DCFD7BD56415
310
C45AA31A75D7148E8391E2A5EEBD2964BAB6BFBA1153B4D40D87626DBC185037488A85DFE3A1F645A909179A2ED653E40075F191BA73EC2D6D7E60D4DB335E9C23EA35E340C0AA7B4EEA40D53D47D12B03A9EEE5BE280BE6D4FDAD1D56A3B4BA6165E63A76A388DD5F0D0CDE4EDD0B7431959943A398B9C1C0ED8BBCFA78E0
310
514FAB5B67E6AAFBA3227C1403FD51114075777A7386FAA3DA14A24241A518DCE1959EBFB55186C310500CEC7AB95CDC5F50142BEDB71C04528F8F424D21077A0910C414CDD022B8BA986B665DF739CA0B3EC5742A5B0E1CC4EC8B7A246A69A8D5DD8FDD7829C045BDAF33739CBEE866E69829F22328F61BFDD8EB5593147B
310
D8ECF369B756F77E4F49D973246A57DD9B4EB71FAAC387A81B2D4533CA0B29456766F4AEBA20473DF70025456F66344E5F74C77062A6C86151AC7CC0CA0275330C1403EAFE6A128F128A21757F33B76D6F8A05EAAE63776FAE1B2C8A6563EFBABA0055A3E6EFBBC9604ECB10B4B4ED3E73D4F1A2D346910F28A61AB2CEA63D
310
280C432CA5A1A678BE3633171052B8C689280C3244E1A2A17856ACD7634525C5EA7B3BE51446A58ED66734BE988894D07C618C531055142B1F7C585218E4B41463435707D5A292E2ED8BEF218A72AC2A5C8A56965B47BE2514C7B55163673E367E6DB24681A3986AA3CE4131D8D29E23EA29A558F9C8DC2603414D619C8842
310
64E698298CE75B632C0399575EF590A0896D5B51B4B6F42E62DF567EFF722845276C9785C33D666F9979674D658D1ABA46E39770658D521B2F24C66497512BEF824B315E9931518CF65DF65B5AC814E42F512C887E9A4253680A4D71304513F53485A6D88AA2C97F3152F43BE4B42F1453106514CBFA69D78D788143B15C12
310
907D81AB469D43179A02741BB55A1DB02996D220F0C5020E774189725DB8A7A098DD1F070559F0C0160414331C8828DCE93B8B458FD07A15F7299A23768D7A83338EEB91900B5DA79862E0C4DF6CAE468DFE5F8C05FF32E32B0A77EECC5B276FCCABE0688AF1131F3DC4988758C437DF742CA6983FE91514CDFF5C3998E203
310
33A6FC3A3BB16426ED524EB108023C055902019F826C304F493DC51673AD945334105309CAFCD857A5142D4F60A098CF5C31536C32D14A3D05D1147F8402956D2D34F5A6293485A6D01478281C22273D964B399153CE8194EF9C720D2D45B5522DAAAD9A575A5ED0EE3565BD3D6B073C7D5197007085D32CCEB42E9E04F569
310
3BF57B10184E532FBA278348DD75BDA82BD5288583CACE4DA1A31E240A2C77459A42531C49A1DB284DA1293485A6D897A2D538DF5F86AF9F7660DF3BD0683851A334051C0ADD46690A4DA1293485A6D014F029E213D8C8286264F61FC5D0DAC91D4BCCD80000000049454E44AE426082488EB3E457E6C21246D9A56C3CCAD9
310
03C14F0195FB62C5121FE3298080754AFA2944ACB5523666EE3021960A14F6DC57AD31AAE789FD14F26314BB72154A01D552085968A59F029C14CC186595896EA2FA5D72200A78529C144213D03128CE1865A02E3C40173D7EFE005D034937BD7ACB5A0AE0F51E69B6665D697D42BB733A19A3BCF6B477BE68F718E08ADEF9
310
F596635443E0356DA8C51FD06BF44547E1591BA3DA76D136AAD918E5596573BA3806C55947995447D9D2B75BAEA3ECA38047A338D57D529C7DBDB3AF77EAE2A4E0A0E8A598D7C7EC196D86F3A9FB65684E5F88511652C0A3519C31EAA438EBA8B38E325A179F2B3CD9777B085F8093C2348AF40036338BD832FB0F5F905930
310
241F52910000000049454E44AE4260821D149D10F36E8B3DA3CD703E74BF0D8DE90B3ECA420A78358ADB47DD14771E75E75146EBA2BDC3937D8F97B005B8294CA3882F506666115B56FE03947CDB3E91F417A00000000049454E44AE426082
  0
ACDSRECORD
 90
        0
  2
AcDbDs::ID
280
    10
320
22
  2
Thumbnail_Data
280
    15
 94
     1704
310
89504E470D0A1A0A0000000D49484452000001000000007508030000009634CF9200000300504C5445FFFFFFFFFFFFFFFFFF0000000000000000000000000000000000000000000000000000330000660000990000CC0000FF0033000033330033660033990033CC0033FF0066000066330066660066990066CC0066FF0099
310
000099330099660099990099CC0099FF00CC0000CC3300CC6600CC9900CCCC00CCFF00FF0000FF3300FF6600FF9900FFCC00FFFF3300003300333300663300993300CC3300FF3333003333333333663333993333CC3333FF3366003366333366663366993366CC3366FF3399003399333399663399993399CC3399FF33CC00
310
33CC3333CC6633CC9933CCCC33CCFF33FF0033FF3333FF6633FF9933FFCC33FFFF6600006600336600666600996600CC6600FF6633006633336633666633996633CC6633FF6666006666336666666666996666CC6666FF6699006699336699666699996699CC6699FF66CC0066CC3366CC6666CC9966CCCC66CCFF66FF0066
310
FF3366FF6666FF9966FFCC66FFFF9900009900339900669900999900CC9900FF9933009933339933669933999933CC9933FF9966009966339966669966999966CC9966FF9999009999339999669999999999CC9999FF99CC0099CC3399CC6699CC9999CCCC99CCFF99FF0099FF3399FF6699FF9999FFCC99FFFFCC0000CC00
310
33CC0066CC0099CC00CCCC00FFCC3300CC3333CC3366CC3399CC33CCCC33FFCC6600CC6633CC6666CC6699CC66CCCC66FFCC9900CC9933CC9966CC9999CC99CCCC99FFCCCC00CCCC33CCCC66CCCC99CCCCCCCCCCFFCCFF00CCFF33CCFF66CCFF99CCFFCCCCFFFFFF0000FF0033FF0066FF0099FF00CCFF00FFFF3300FF3333
310
FF3366FF3399FF33CCFF33FFFF6600FF6633FF6666FF6699FF66CCFF66FFFF9900FF9933FF9966FF9999FF99CCFF99FFFFCC00FFCC33FFCC66FFCC99FFCCCCFFCCFFFFFF00FFFF33FFFF66FFFF99FFFFCCFFFFFF0000000D0D0D1A1A1A2828283535354343435050505D5D5D6B6B6B787878868686939393A1A1A1AEAEAEBB
310
BBBBC9C9C9D6D6D6E4E4E4F1F1F1FFFFFF000000000000000000000000000000000000000000000000000000000000AD4AB4E4000003254944415478DAED9C4DB2AC200C85B303B6D1FB5F0013779259573170094F015B90DF7E6DDD921C32B0BAD5099F39498028D1834C9364D3AC777347ADDFC1B1C382DB8725C044EB76
310
D4F651ABB73DF7EEF580DCEDE301D8C6BFD600907000FBF8493400CE598704829B4402E00E9B124000D0CC02E20188CF0291A8BB742F194043023C25300BA15908C10158091140A1148402F091007825C8BC2CCB6B07604C0AC08807F05AB718B0BC160B206BF2016C5606402000F6B0F0B503488901BB69CEC780DE20D8B1
310
78F0D84A90F98E2CC08F7FC6F93CB8FFB8A5121C12809D1FDF34191A02406E727CD764681800F5F5009100FE663D605C00F225D0F2002F81AD1620BFC78929819F00B00009C805D0B51F8602202B81AD169E120006704B16E09905869A0C452791B2401A0C392F816E93220102CF02D895E0367CA018505E238A0174B6498D
310
0AE02A01E1A530BC046616E8CE025ABF2502E0529B98BF7A5682DA0000C85DB0DBE37201D46DDF1C255A500130BBDD61429040A906C202904AC05E038E01511A8404105482A000D6D003FECBFA5E2F79B0044E0FE01F6C600950190089B7B0571813C091051C0082B34F16C0051049E0386D240DB1DE2D1E49A0AF41541600
310
3A5B6474678BF0E800CA6D0246A40BD453DBD925C6A041700D25D002903AC6F09EA2AC39000A12803BBA3E415800DE033C008602C06A87E0BE2243A63503900BC08FE6F08052DE181240E3CD51568A420069A130BA07D4DF17F195510480050388FF5B7F4F3D80A9140B440068C4007900BE0C82F2B2407D19D3D701C000EC
310
2F15A541A6523D2401005D041EBD27DB88177C05C0430208CE5F9F69580A8BF1803A1A4329004601900E080E40E2134116C006C03C014C00130026009705B001103080B35C0604100E5A1280CA8A5065CF543080660C20020F82138064097C5644A00194E67AF159E912607400D90667280014A5FD56F3AFFB1B00F0D7CDB0
310
638F4C1D96F300BF5E7CF44E7D1690076CA64A077C19B7CABA7DDC3CF6C517271F67B9071DDF904E0F929E4191CD940500B675302373B96DE42A13F60D010310EAE8DD00FCF82B5F60908DE378FEB000C44D76A74DFBB564669E00268009E00FEC1F2219533D0AB68F870000000049454E44AE42608207402F97175C2E2F29
310
2F102D97979019EAE5F2887E597901AC5C5E4A7D009D72F93A3EE072B97C51003F3DE5821B6AE66C450000000049454E44AE426082
  0
ENDSEC
  0
EOF
