  0
SECTION
  2
HEADER
  9
$ACADVER
  1
AC1032
  9
$ACADMAINTVER
 90
      157
  9
$DWGCODEPAGE
  3
ANSI_1252
  9
$LASTSAVEDBY
  1
Kevin.Lindstrom
  9
$REQUIREDVERSIONS
160
                 0
  9
$INSBASE
 10
0.0
 20
0.0
 30
0.0
  9
$EXTMIN
 10
24.20637292333043
 20
15.75539217443587
 30
0.0
  9
$EXTMAX
 10
31.19711819485976
 20
28.33050421272267
 30
0.0
  9
$LIMMIN
 10
0.0
 20
0.0
  9
$LIMMAX
 10
12.0
 20
9.0
  9
$ORTHOMODE
 70
     0
  9
$REGENMODE
 70
     1
  9
$FILLMODE
 70
     1
  9
$QTEXTMODE
 70
     0
  9
$MIRRTEXT
 70
     0
  9
$LTSCALE
 40
1.0
  9
$ATTMODE
 70
     1
  9
$TEXTSIZE
 40
0.2
  9
$TRACEWID
 40
0.05
  9
$TEXTSTYLE
  7
Standard
  9
$CLAYER
  8
MORTAIRVENT
  9
$CELTYPE
  6
ByLayer
  9
$CECOLOR
 62
   256
  9
$CELTSCALE
 40
1.0
  9
$DISPSILH
 70
     0
  9
$DIMSCALE
 40
1.0
  9
$DIMASZ
 40
0.12
  9
$DIMEXO
 40
0.05
  9
$DIMDLI
 40
0.5
  9
$DIMRND
 40
0.0
  9
$DIMDLE
 40
0.0
  9
$DIMEXE
 40
0.1
  9
$DIMTP
 40
0.1
  9
$DIMTM
 40
0.1
  9
$DIMTXT
 40
0.12
  9
$DIMCEN
 40
0.0
  9
$DIMTSZ
 40
0.0
  9
$DIMTOL
 70
     0
  9
$DIMLIM
 70
     0
  9
$DIMTIH
 70
     1
  9
$DIMTOH
 70
     1
  9
$DIMSE1
 70
     0
  9
$DIMSE2
 70
     0
  9
$DIMTAD
 70
     0
  9
$DIMZIN
 70
     7
  9
$DIMBLK
  1

  9
$DIMASO
 70
     1
  9
$DIMSHO
 70
     1
  9
$DIMPOST
  1

  9
$DIMAPOST
  1
mm
  9
$DIMALT
 70
     0
  9
$DIMALTD
 70
     2
  9
$DIMALTF
 40
25.4
  9
$DIMLFAC
 40
1.0
  9
$DIMTOFL
 70
     0
  9
$DIMTVP
 40
0.0
  9
$DIMTIX
 70
     0
  9
$DIMSOXD
 70
     0
  9
$DIMSAH
 70
     0
  9
$DIMBLK1
  1

  9
$DIMBLK2
  1

  9
$DIMSTYLE
  2
AM_ANSI
  9
$DIMCLRD
 70
   256
  9
$DIMCLRE
 70
   256
  9
$DIMCLRT
 70
     2
  9
$DIMTFAC
 40
0.71
  9
$DIMGAP
 40
0.06
  9
$DIMJUST
 70
     0
  9
$DIMSD1
 70
     0
  9
$DIMSD2
 70
     0
  9
$DIMTOLJ
 70
     1
  9
$DIMTZIN
 70
     7
  9
$DIMALTZ
 70
     0
  9
$DIMALTTZ
 70
     0
  9
$DIMUPT
 70
     0
  9
$DIMDEC
 70
     4
  9
$DIMTDEC
 70
     4
  9
$DIMALTU
 70
     2
  9
$DIMALTTD
 70
     4
  9
$DIMTXSTY
  7
Standard
  9
$DIMAUNIT
 70
     0
  9
$DIMADEC
 70
     0
  9
$DIMALTRND
 40
0.0
  9
$DIMAZIN
 70
     2
  9
$DIMDSEP
 70
    46
  9
$DIMATFIT
 70
     3
  9
$DIMFRAC
 70
     0
  9
$DIMLDRBLK
  1

  9
$DIMLUNIT
 70
     2
  9
$DIMLWD
 70
    -1
  9
$DIMLWE
 70
    -1
  9
$DIMTMOVE
 70
     0
  9
$DIMFXL
 40
1.0
  9
$DIMFXLON
 70
     0
  9
$DIMJOGANG
 40
0.7853981633974483
  9
$DIMTFILL
 70
     0
  9
$DIMTFILLCLR
 70
     0
  9
$DIMARCSYM
 70
     1
  9
$DIMLTYPE
  6
ByBlock
  9
$DIMLTEX1
  6
ByBlock
  9
$DIMLTEX2
  6
ByBlock
  9
$DIMTXTDIRECTION
 70
     0
  9
$LUNITS
 70
     2
  9
$LUPREC
 70
     4
  9
$SKETCHINC
 40
0.1
  9
$FILLETRAD
 40
0.0
  9
$AUNITS
 70
     0
  9
$AUPREC
 70
     0
  9
$MENU
  1
.
  9
$ELEVATION
 40
0.0
  9
$PELEVATION
 40
0.0
  9
$THICKNESS
 40
0.0
  9
$LIMCHECK
 70
     0
  9
$CHAMFERA
 40
0.0
  9
$CHAMFERB
 40
0.0
  9
$CHAMFERC
 40
0.0
  9
$CHAMFERD
 40
0.0
  9
$SKPOLY
 70
     0
  9
$TDCREATE
 40
2458344.563125000
  9
$TDUCREATE
 40
2458344.729791667
  9
$TDUPDATE
 40
2459004.996203704
  9
$TDUUPDATE
 40
2459005.162870370
  9
$TDINDWG
 40
1.2827430556
  9
$TDUSRTIMER
 40
1.2827430556
  9
$USRTIMER
 70
     1
  9
$ANGBASE
 50
0.0
  9
$ANGDIR
 70
     0
  9
$PDMODE
 70
     0
  9
$PDSIZE
 40
0.0
  9
$PLINEWID
 40
0.0
  9
$SPLFRAME
 70
     0
  9
$SPLINETYPE
 70
     6
  9
$SPLINESEGS
 70
     8
  9
$HANDSEED
  5
207D
  9
$SURFTAB1
 70
     6
  9
$SURFTAB2
 70
     6
  9
$SURFTYPE
 70
     6
  9
$SURFU
 70
     6
  9
$SURFV
 70
     6
  9
$UCSBASE
  2

  9
$UCSNAME
  2

  9
$UCSORG
 10
0.0
 20
0.0
 30
0.0
  9
$UCSXDIR
 10
1.0
 20
0.0
 30
0.0
  9
$UCSYDIR
 10
0.0
 20
1.0
 30
0.0
  9
$UCSORTHOREF
  2

  9
$UCSORTHOVIEW
 70
     0
  9
$UCSORGTOP
 10
0.0
 20
0.0
 30
0.0
  9
$UCSORGBOTTOM
 10
0.0
 20
0.0
 30
0.0
  9
$UCSORGLEFT
 10
0.0
 20
0.0
 30
0.0
  9
$UCSORGRIGHT
 10
0.0
 20
0.0
 30
0.0
  9
$UCSORGFRONT
 10
0.0
 20
0.0
 30
0.0
  9
$UCSORGBACK
 10
0.0
 20
0.0
 30
0.0
  9
$PUCSBASE
  2

  9
$PUCSNAME
  2

  9
$PUCSORG
 10
0.0
 20
0.0
 30
0.0
  9
$PUCSXDIR
 10
1.0
 20
0.0
 30
0.0
  9
$PUCSYDIR
 10
0.0
 20
1.0
 30
0.0
  9
$PUCSORTHOREF
  2

  9
$PUCSORTHOVIEW
 70
     0
  9
$PUCSORGTOP
 10
0.0
 20
0.0
 30
0.0
  9
$PUCSORGBOTTOM
 10
0.0
 20
0.0
 30
0.0
  9
$PUCSORGLEFT
 10
0.0
 20
0.0
 30
0.0
  9
$PUCSORGRIGHT
 10
0.0
 20
0.0
 30
0.0
  9
$PUCSORGFRONT
 10
0.0
 20
0.0
 30
0.0
  9
$PUCSORGBACK
 10
0.0
 20
0.0
 30
0.0
  9
$USERI1
 70
     0
  9
$USERI2
 70
     0
  9
$USERI3
 70
     0
  9
$USERI4
 70
     0
  9
$USERI5
 70
     0
  9
$USERR1
 40
0.0
  9
$USERR2
 40
0.0
  9
$USERR3
 40
0.0
  9
$USERR4
 40
0.0
  9
$USERR5
 40
0.0
  9
$WORLDVIEW
 70
     1
  9
$SHADEDGE
 70
     3
  9
$SHADEDIF
 70
    70
  9
$TILEMODE
 70
     0
  9
$MAXACTVP
 70
    64
  9
$PINSBASE
 10
0.0
 20
0.0
 30
0.0
  9
$PLIMCHECK
 70
     0
  9
$PEXTMIN
 10
0.3093692292309651
 20
0.3194843464751703
 30
0.0
  9
$PEXTMAX
 10
7.812167594685401
 20
10.30808073276256
 30
0.0
  9
$PLIMMIN
 10
-0.1893044634805872
 20
-0.1862136705895949
  9
$PLIMMAX
 10
8.310695296223522
 20
10.81378608911451
  9
$UNITMODE
 70
     0
  9
$VISRETAIN
 70
     1
  9
$PLINEGEN
 70
     0
  9
$PSLTSCALE
 70
     1
  9
$TREEDEPTH
 70
  3020
  9
$CMLSTYLE
  2
Standard
  9
$CMLJUST
 70
     0
  9
$CMLSCALE
 40
1.0
  9
$PROXYGRAPHICS
 70
     1
  9
$MEASUREMENT
 70
     0
  9
$CELWEIGHT
370
    -1
  9
$ENDCAPS
280
     0
  9
$JOINSTYLE
280
     0
  9
$LWDISPLAY
290
     0
  9
$INSUNITS
 70
     1
  9
$HYPERLINKBASE
  1

  9
$STYLESHEET
  1

  9
$XEDIT
290
     1
  9
$CEPSNTYPE
380
     0
  9
$PSTYLEMODE
290
     1
  9
$FINGERPRINTGUID
  2
{56558D61-6682-194F-8AF1-C005325E63F8}
  9
$VERSIONGUID
  2
{1A341AC8-FAF6-9742-AD7E-EAD66FAE0ED6}
  9
$EXTNAMES
290
     1
  9
$PSVPSCALE
 40
0.0
  9
$OLESTARTUP
290
     0
  9
$SORTENTS
280
   127
  9
$INDEXCTL
280
     0
  9
$HIDETEXT
280
     1
  9
$XCLIPFRAME
280
     2
  9
$HALOGAP
280
     0
  9
$OBSCOLOR
 70
   257
  9
$OBSLTYPE
280
     0
  9
$INTERSECTIONDISPLAY
280
     0
  9
$INTERSECTIONCOLOR
 70
   257
  9
$DIMASSOC
280
     2
  9
$PROJECTNAME
  1

  9
$CAMERADISPLAY
290
     0
  9
$LENSLENGTH
 40
50.0
  9
$CAMERAHEIGHT
 40
0.0
  9
$STEPSPERSEC
 40
2.0
  9
$STEPSIZE
 40
6.0
  9
$3DDWFPREC
 40
2.0
  9
$PSOLWIDTH
 40
0.25
  9
$PSOLHEIGHT
 40
4.0
  9
$LOFTANG1
 40
1.570796326794896
  9
$LOFTANG2
 40
1.570796326794896
  9
$LOFTMAG1
 40
0.0
  9
$LOFTMAG2
 40
0.0
  9
$LOFTPARAM
 70
     7
  9
$LOFTNORMALS
280
     1
  9
$LATITUDE
 40
37.795
  9
$LONGITUDE
 40
-122.394
  9
$NORTHDIRECTION
 40
0.0
  9
$TIMEZONE
 70
 -8000
  9
$LIGHTGLYPHDISPLAY
280
     1
  9
$TILEMODELIGHTSYNCH
280
     1
  9
$CMATERIAL
347
96
  9
$SOLIDHIST
280
     0
  9
$SHOWHIST
280
     1
  9
$DWFFRAME
280
     2
  9
$DGNFRAME
280
     0
  9
$REALWORLDSCALE
290
     1
  9
$INTERFERECOLOR
 62
     1
  9
$INTERFEREOBJVS
345
A3
  9
$INTERFEREVPVS
346
A0
  9
$CSHADOW
280
     0
  9
$SHADOWPLANELOCATION
 40
0.0
  0
ENDSEC
  0
SECTION
  2
CLASSES
  0
CLASS
  1
ACDBDICTIONARYWDFLT
  2
AcDbDictionaryWithDefault
  3
ObjectDBX Classes
 90
        0
 91
        1
280
     0
281
     0
  0
CLASS
  1
ACDBPLACEHOLDER
  2
AcDbPlaceHolder
  3
ObjectDBX Classes
 90
        0
 91
        1
280
     0
281
     0
  0
CLASS
  1
LAYOUT
  2
AcDbLayout
  3
ObjectDBX Classes
 90
        0
 91
        2
280
     0
281
     0
  0
CLASS
  1
DICTIONARYVAR
  2
AcDbDictionaryVar
  3
ObjectDBX Classes
 90
        0
 91
       12
280
     0
281
     0
  0
CLASS
  1
TABLESTYLE
  2
AcDbTableStyle
  3
ObjectDBX Classes
 90
     4095
 91
        1
280
     0
281
     0
  0
CLASS
  1
MATERIAL
  2
AcDbMaterial
  3
ObjectDBX Classes
 90
     1153
 91
        3
280
     0
281
     0
  0
CLASS
  1
VISUALSTYLE
  2
AcDbVisualStyle
  3
ObjectDBX Classes
 90
     4095
 91
       24
280
     0
281
     0
  0
CLASS
  1
SCALE
  2
AcDbScale
  3
ObjectDBX Classes
 90
     1153
 91
       19
280
     0
281
     0
  0
CLASS
  1
MLEADERSTYLE
  2
AcDbMLeaderStyle
  3
ACDB_MLEADERSTYLE_CLASS
 90
     4095
 91
        2
280
     0
281
     0
  0
CLASS
  1
CELLSTYLEMAP
  2
AcDbCellStyleMap
  3
ObjectDBX Classes
 90
     1152
 91
        1
280
     0
281
     0
  0
CLASS
  1
EXACXREFPANELOBJECT
  2
ExAcXREFPanelObject
  3
EXAC_ESW
 90
     1025
 91
        1
280
     0
281
     0
  0
CLASS
  1
NPOCOLLECTION
  2
AcDbImpNonPersistentObjectsCollection
  3
ObjectDBX Classes
 90
     1153
 91
        1
280
     0
281
     0
  0
CLASS
  1
LAYER_INDEX
  2
AcDbLayerIndex
  3
ObjectDBX Classes
 90
        0
 91
        0
280
     0
281
     0
  0
CLASS
  1
SPATIAL_INDEX
  2
AcDbSpatialIndex
  3
ObjectDBX Classes
 90
        0
 91
        0
280
     0
281
     0
  0
CLASS
  1
IDBUFFER
  2
AcDbIdBuffer
  3
ObjectDBX Classes
 90
        0
 91
        0
280
     0
281
     0
  0
CLASS
  1
ACDBSECTIONVIEWSTYLE
  2
AcDbSectionViewStyle
  3
ObjectDBX Classes
 90
     1025
 91
        2
280
     0
281
     0
  0
CLASS
  1
ACDBDETAILVIEWSTYLE
  2
AcDbDetailViewStyle
  3
ObjectDBX Classes
 90
     1025
 91
        2
280
     0
281
     0
  0
CLASS
  1
ACME_DOCUMENT
  2
AcMeDbDoc
  3
AcMeServices
 90
     1024
 91
        0
280
     0
281
     0
  0
CLASS
  1
AMGSETTINGSOBJ
  2
AmgSettingsObj
  3
"AcadM|Product Description: AutoCAD Mechanical|Company: Autodesk, Inc."
 90
     1024
 91
        3
280
     0
281
     0
  0
CLASS
  1
ACMESCOPE
  2
AcMeScope
  3
AcMeServices
 90
     1024
 91
        1
280
     0
281
     0
  0
CLASS
  1
ACMECOMMANDHISTORY
  2
AcMeCommandHistory
  3
AcMeServices
 90
     1024
 91
        1
280
     0
281
     0
  0
CLASS
  1
ACIMSYSVARMAN
  2
AcImSysVarManager
  3
AcMeServices
 90
     1024
 91
        3
280
     0
281
     0
  0
CLASS
  1
ACIMINTSYSVAR
  2
AcImIntSysVar
  3
AcMeServices
 90
     1024
 91
        2
280
     0
281
     0
  0
CLASS
  1
ACMESTATEMGR
  2
AcMeStateMgr
  3
AcMeServices
 90
     1024
 91
        1
280
     0
281
     0
  0
CLASS
  1
ACDBENTITYCACHE
  2
AcMeEntityCache
  3
AcMeServices
 90
     1024
 91
        0
280
     0
281
     0
  0
CLASS
  1
ACGREFMASTER
  2
AcGrefMaster
  3
AcAttribServices
 90
     1024
 91
        1
280
     0
281
     0
  0
CLASS
  1
ACME_DATABASE
  2
AcMeDbDatabase
  3
AcMeServices
 90
     1024
 91
        0
280
     0
281
     0
  0
CLASS
  1
ACRFINSADJUSTERMGR
  2
AcRfInsAdjusterMgr
  3
AcMeServices
 90
     1024
 91
        0
280
     0
281
     0
  0
CLASS
  1
ACGREFACADMASTER
  2
AcGrefacadMaster
  3
AcGrefServices
 90
     1024
 91
        1
280
     0
281
     0
  0
CLASS
  1
AMIMASTER
  2
AmiMaster
  3
AmiServices
 90
     1024
 91
        1
280
     0
281
     0
  0
CLASS
  1
AMDTMENUSTATEMGR
  2
AmdtMenuStateMgr
  3
McadcomServices
 90
     1024
 91
        0
280
     0
281
     0
  0
CLASS
  1
AMDTMCOMMENUSTATE
  2
AmdtMcomMenuState
  3
McadcomServices
 90
     1024
 91
        0
280
     0
281
     0
  0
CLASS
  1
MAPIAMMOUDLE
  2
MApiAmModule
  3
MApiAmServices
 90
     1024
 91
        1
280
     0
281
     0
  0
CLASS
  1
ACIMSTRSYSVAR
  2
AcImStrSysVar
  3
AcMeServices
 90
     1024
 91
        5
280
     0
281
     0
  0
CLASS
  1
AMDTAMMENUSTATE
  2
AmdtAmMenuState
  3
DesignerAssemblies_arx
 90
     1024
 91
        0
280
     0
281
     0
  0
CLASS
  1
ACAMPROJECT
  2
AcAmProject
  3
DesignerAssemblies
 90
     1024
 91
        1
280
     0
281
     0
  0
CLASS
  1
ACAMGRCOMPDEF
  2
AcAmGrCompDef
  3
DesignerAssemblies
 90
     1024
 91
        1
280
     0
281
     0
  0
CLASS
  1
ACAMCOMPDEF
  2
AcAmCompDef
  3
DesignerAssemblies
 90
     1024
 91
        1
280
     0
281
     0
  0
CLASS
  1
ACAMCOMPDEFMGR
  2
AcAmCompDefMgr
  3
DesignerAssemblies
 90
     1024
 91
        1
280
     0
281
     0
  0
CLASS
  1
AMCONTEXTMGR
  2
AcAmContextMgr
  3
DesignerAssemblies
 90
     1024
 91
        1
280
     0
281
     0
  0
CLASS
  1
ACAMCONTEXTMODELER
  2
AcAmContextModeler
  3
DesignerAssemblies
 90
     1024
 91
        1
280
     0
281
     0
  0
CLASS
  1
ACMDATADICTIONARY
  2
AcmDataDictionary
  3
"AcmSymBB|Product Description: AutoCAD Mechanical|Company: Autodesk, Inc."
 90
     1024
 91
        1
280
     0
281
     0
  0
CLASS
  1
ACMSTANDARDANSI
  2
AcmStandardANSI
  3
"Amdt_StdImp|Product Description: AutoCAD Mechanical|Company: Autodesk, Inc."
 90
     1024
 91
        1
280
     0
281
     0
  0
CLASS
  1
ACMSURFSTANDARDANSI
  2
AcmSurfTextStdANSI
  3
"Amdt_StdImp|Product Description: AutoCAD Mechanical|Company: Autodesk, Inc."
 90
     1024
 91
        1
280
     0
281
     0
  0
CLASS
  1
ACMFCFSTANDARDANSI
  2
AcmFCFStdANSI
  3
"Amdt_StdImp|Product Description: AutoCAD Mechanical|Company: Autodesk, Inc."
 90
     1024
 91
        1
280
     0
281
     0
  0
CLASS
  1
ACMWELDSTANDARDANSI
  2
AcmWeldingStdANSI
  3
"Amdt_StdImp|Product Description: AutoCAD Mechanical|Company: Autodesk, Inc."
 90
     1024
 91
        1
280
     0
281
     0
  0
CLASS
  1
ACMIDSTANDARDANSI
  2
AcmIdStdANSI
  3
"Amdt_StdImp|Product Description: AutoCAD Mechanical|Company: Autodesk, Inc."
 90
     1024
 91
        1
280
     0
281
     0
  0
CLASS
  1
ACMDATUMSTANDARDANSI
  2
AcmDatumStdANSI
  3
"Amdt_StdImp|Product Description: AutoCAD Mechanical|Company: Autodesk, Inc."
 90
     1024
 91
        1
280
     0
281
     0
  0
CLASS
  1
ACMBOMSTANDARDANSI
  2
AcmBOMStdANSI
  3
"Amdt_StdImp|Product Description: AutoCAD Mechanical|Company: Autodesk, Inc."
 90
     1024
 91
        1
280
     0
281
     0
  0
CLASS
  1
ACMDETAILSTANDARDANSI
  2
AmdtDetailSymStdANSI
  3
"Amdt_StdImp|Product Description: AutoCAD Mechanical|Company: Autodesk, Inc."
 90
     1024
 91
        1
280
     0
281
     0
  0
CLASS
  1
ACMSECTIONSTANDARDANSI
  2
AmdtSectionSymStdANSI
  3
"Amdt_StdImp|Product Description: AutoCAD Mechanical|Company: Autodesk, Inc."
 90
     1024
 91
        1
280
     0
281
     0
  0
CLASS
  1
ACMCENTERLINESTANDARDANSI
  2
AmdtCenterLineStdANSI
  3
"Amdt_StdImp|Product Description: AutoCAD Mechanical|Company: Autodesk, Inc."
 90
     1024
 91
        1
280
     0
281
     0
  0
CLASS
  1
ACMTHREADLINESTANDARDANSI
  2
AmdtThreadLineStdANSI
  3
"Amdt_StdImp|Product Description: AutoCAD Mechanical|Company: Autodesk, Inc."
 90
     1024
 91
        1
280
     0
281
     0
  0
CLASS
  1
ACMNOTESTANDARDANSI
  2
AmdtNoteStdANSI
  3
"Amdt_StdImp|Product Description: AutoCAD Mechanical|Company: Autodesk, Inc."
 90
     1024
 91
        1
280
     0
281
     0
  0
CLASS
  1
ACMTAPERSTANDARDANSI
  2
AcmTaperStdANSI
  3
"Amdt_StdImp|Product Description: AutoCAD Mechanical|Company: Autodesk, Inc."
 90
     1024
 91
        1
280
     0
281
     0
  0
CLASS
  1
ACMANOOTATIONVIEWSTANDARDANSI
  2
AmdtAnViewStdANSI
  3
"Amdt_StdImp|Product Description: AutoCAD Mechanical|Company: Autodesk, Inc."
 90
     1024
 91
        1
280
     0
281
     0
  0
CLASS
  1
ACAMGLAYSTD
  2
AcAmgLayStd
  3
"AmgLay|Product Description: AutoCAD Mechanical|Company: Autodesk, Inc."
 90
     1024
 91
        1
280
     0
281
     0
  0
CLASS
  1
ACAMGDIMSTD
  2
AcAmgDimStd
  3
"AmgDim|Product Description: AutoCAD Mechanical|Company: Autodesk, Inc."
 90
     1024
 91
        1
280
     0
281
     0
  0
CLASS
  1
AMGOBJPROPCFG
  2
AmgObjPropCfg
  3
"AmgLay|Product Description: AutoCAD Mechanical|Company: Autodesk, Inc."
 90
     1024
 91
        1
280
     0
281
     0
  0
CLASS
  1
ACAMGHOLECHARTSTDANSI
  2
AcAmgHoleChartStdANSI
  3
"AmgDim" "Product Description: AutoCAD Mechanical|Company: Autodesk, Inc."
 90
     1024
 91
        1
280
     0
281
     0
  0
CLASS
  1
ACAMGTITLESTD
  2
AcAmgTitleStd
  3
"AmgTitle|Product Description: AutoCAD Mechanical|Company: Autodesk, Inc."
 90
     1024
 91
        1
280
     0
281
     0
  0
CLASS
  1
ACMSECTIONSTANDARDCUSTOM
  2
AmdtSectionSymStdCustom
  3
"Amdt_StdImp|Product Description: AutoCAD Mechanical|Company: Autodesk, Inc."
 90
     1024
 91
        1
280
     0
281
     0
  0
CLASS
  1
ACMDETAILTANDARDCUSTOM
  2
AmdtDetailSymStdCustom
  3
"Amdt_StdImp|Product Description: AutoCAD Mechanical|Company: Autodesk, Inc."
 90
     1024
 91
        1
280
     0
281
     0
  0
CLASS
  1
FIELD
  2
AcDbField
  3
ObjectDBX Classes
 90
     1152
 91
        6
280
     0
281
     0
  0
CLASS
  1
FIELDLIST
  2
AcDbFieldList
  3
ObjectDBX Classes
 90
     1152
 91
        1
280
     0
281
     0
  0
CLASS
  1
AMDTNOTETEMPLATEDB
  2
AmdtNoteTemplateDB
  3
"AcmSymBB" "Product Description: AutoCAD Mechanical|Company: Autodesk, Inc."
 90
     1024
 91
        7
280
     0
281
     0
  0
CLASS
  1
ACAMGRCOMPDEFSET
  2
AcAmGrCompDefSet
  3
DesignerAssemblies
 90
     1024
 91
        0
280
     0
281
     0
  0
CLASS
  1
AMDTBROWSERDBTAB
  2
AmdtBrowserDbTab
  3
McadcomServices
 90
     1024
 91
        0
280
     0
281
     0
  0
CLASS
  1
CBROWSERAPPOBJECT
  2
CBrowserAppObject
  3
McadcomServices
 90
     1024
 91
        0
280
     0
281
     0
  0
CLASS
  1
DM_PLACEHOLDER
  2
AcDmSelsetPlaceholder
  3
McadcomServices
 90
     1024
 91
        0
280
     0
281
     0
  0
CLASS
  1
ACAMGFILTERDAT
  2
AcAmgFilterDat
  3
"AcadM|Product Description: AutoCAD Mechanical|Company: Autodesk, Inc."
 90
     1024
 91
        6
280
     0
281
     0
  0
CLASS
  1
CAMSSTRUCTBTNSTATE
  2
StructBtnState
  3
DesignerAssemblies_arx
 90
     1024
 91
        1
280
     0
281
     0
  0
CLASS
  1
SORTENTSTABLE
  2
AcDbSortentsTable
  3
ObjectDBX Classes
 90
        0
 91
        2
280
     0
281
     0
  0
CLASS
  1
RASTERVARIABLES
  2
AcDbRasterVariables
  3
ISM
 90
        0
 91
        1
280
     0
281
     0
  0
CLASS
  1
IMAGEDEF
  2
AcDbRasterImageDef
  3
ISM
 90
        0
 91
        1
280
     0
281
     0
  0
CLASS
  1
IMAGEDEF_REACTOR
  2
AcDbRasterImageDefReactor
  3
ISM
 90
        1
 91
        2
280
     0
281
     0
  0
CLASS
  1
IMAGE
  2
AcDbRasterImage
  3
ISM
 90
     2175
 91
        1
280
     0
281
     1
  0
CLASS
  1
RAPIDRTRENDERSETTINGS
  2
AcDbRapidRTRenderSettings
  3
ObjectDBX Classes
 90
     1024
 91
        6
280
     0
281
     0
  0
CLASS
  1
AMDTNOTE
  2
AmdtNote
  3
"AcmSymBB|Product Description: AutoCAD Mechanical|Company: Autodesk, Inc."
 90
     1024
 91
        0
280
     0
281
     1
  0
CLASS
  1
ACDBOPPOLYLINERES
  2
AcDbOpPolylineRes
  3
AcGrefServices
 90
     1024
 91
        1
280
     0
281
     0
  0
CLASS
  1
AMDTINTERNALREACTOR
  2
AmdtInternalReactor
  3
AcMeServices
 90
     1024
 91
        0
280
     0
281
     0
  0
ENDSEC
  0
SECTION
  2
TABLES
  0
TABLE
  2
VPORT
  5
8
330
0
100
AcDbSymbolTable
 70
     1
  0
VPORT
  5
94
330
8
100
AcDbSymbolTableRecord
100
AcDbViewportTableRecord
  2
*Active
 70
     0
 10
0.0
 20
0.0
 11
1.0
 21
1.0
 12
27.81940825978565
 22
22.02366531371092
 13
0.0
 23
0.0
 14
0.5
 24
0.5
 15
0.5
 25
0.5
 16
0.0
 26
0.0
 36
1.0
 17
0.0
 27
0.0
 37
0.0
 40
12.71609800352129
 41
2.187927107061503
 42
50.0
 43
0.0
 44
0.0
 50
0.0
 51
0.0
 71
     0
 72
  1000
 73
     1
 74
     3
 75
     0
 76
     0
 77
     0
 78
     0
281
     0
 65
     1
110
0.0
120
0.0
130
0.0
111
1.0
121
0.0
131
0.0
112
0.0
122
1.0
132
0.0
 79
     0
146
0.0
348
9F
 60
     3
 61
     5
292
     1
282
     1
141
0.0
142
0.0
 63
   250
421
  3355443
1001
ACAD_NAV_VCDISPLAY
1070
     3
  0
ENDTAB
  0
TABLE
  2
LTYPE
  5
5
330
0
100
AcDbSymbolTable
 70
    16
  0
LTYPE
  5
14
330
5
100
AcDbSymbolTableRecord
100
AcDbLinetypeTableRecord
  2
ByBlock
 70
     0
  3

 72
    65
 73
     0
 40
0.0
  0
LTYPE
  5
15
330
5
100
AcDbSymbolTableRecord
100
AcDbLinetypeTableRecord
  2
ByLayer
 70
     0
  3

 72
    65
 73
     0
 40
0.0
  0
LTYPE
  5
16
330
5
100
AcDbSymbolTableRecord
100
AcDbLinetypeTableRecord
  2
Continuous
 70
     0
  3
Solid line
 72
    65
 73
     0
 40
0.0
  0
LTYPE
  5
21A
330
5
100
AcDbSymbolTableRecord
100
AcDbLinetypeTableRecord
  2
HIDDEN
 70
     0
  3
Hidden __ __ __ __ __ __ __ __ __ __ __ __ __ _
 72
    65
 73
     2
 40
0.375
 49
0.25
 74
     0
 49
-0.125
 74
     0
  0
LTYPE
  5
21B
330
5
100
AcDbSymbolTableRecord
100
AcDbLinetypeTableRecord
  2
PHANTOM2
 70
     0
  3
Phantom (.5x) ___ _ _ ___ _ _ ___ _ _ ___ _ _
 72
    65
 73
     6
 40
1.25
 49
0.625
 74
     0
 49
-0.125
 74
     0
 49
0.125
 74
     0
 49
-0.125
 74
     0
 49
0.125
 74
     0
 49
-0.125
 74
     0
  0
LTYPE
  5
21C
330
5
100
AcDbSymbolTableRecord
100
AcDbLinetypeTableRecord
  2
CENTER
 70
     0
  3
Center ____ _ ____ _ ____ _ ____ _ ____ _ ____
 72
    65
 73
     4
 40
2.0
 49
1.25
 74
     0
 49
-0.25
 74
     0
 49
0.25
 74
     0
 49
-0.25
 74
     0
  0
LTYPE
  5
250
330
5
100
AcDbSymbolTableRecord
100
AcDbLinetypeTableRecord
  2
AM_ISO02W050
 70
     0
  3
__ __ __ __ __ __ __ __ __ __ __ __ __ __ __
 72
    65
 73
     2
 40
7.5
 49
6.0
 74
     0
 49
-1.5
 74
     0
  0
LTYPE
  5
251
330
5
100
AcDbSymbolTableRecord
100
AcDbLinetypeTableRecord
  2
AM_ISO08W050
 70
     0
  3
____ . ____ . ____ . ____ . ____ . ____ . ____
 72
    65
 73
     4
 40
18.0
 49
12.0
 74
     0
 49
-1.5
 74
     0
 49
3.0
 74
     0
 49
-1.5
 74
     0
  0
LTYPE
  5
252
330
5
100
AcDbSymbolTableRecord
100
AcDbLinetypeTableRecord
  2
AM_ISO09W050
 70
     0
  3
_____ . . _____ . . _____ . . ____ .. ____
 72
    65
 73
     6
 40
22.5
 49
12.0
 74
     0
 49
-1.5
 74
     0
 49
3.0
 74
     0
 49
-1.5
 74
     0
 49
3.0
 74
     0
 49
-1.5
 74
     0
  0
LTYPE
  5
253
330
5
100
AcDbSymbolTableRecord
100
AcDbLinetypeTableRecord
  2
Amconstr
 70
     0
  3
_______________________
 72
    65
 73
     2
 40
9999.0
 49
9999.0
 74
     0
 49
0.0
 74
     0
  0
LTYPE
  5
254
330
5
100
AcDbSymbolTableRecord
100
AcDbLinetypeTableRecord
  2
AM_ISO08W050x2
 70
     0
  3
__ . __ . __ . __ . __ . __
 72
    65
 73
     4
 40
9.0
 49
6.0
 74
     0
 49
-0.75
 74
     0
 49
1.5
 74
     0
 49
-0.75
 74
     0
  0
LTYPE
  5
255
330
5
100
AcDbSymbolTableRecord
100
AcDbLinetypeTableRecord
  2
AM_ISO02W050x2
 70
     0
  3
 _ _ _ _ _ _ _ _ _ _ _ _
 72
    65
 73
     2
 40
3.75
 49
3.0
 74
     0
 49
-0.75
 74
     0
  0
LTYPE
  5
258
330
5
100
AcDbSymbolTableRecord
100
AcDbLinetypeTableRecord
  2
Amzigzag
 70
     0
  3
/\/-/\/-/\/-/\/-/\/-/\/
 72
    65
 73
     2
 40
11.0001
 49
0.0001
 74
     4
 75
   136
340
257
 46
0.04
 50
0.0
 44
0.0
 45
0.0
 49
-11.0
 74
     0
  0
LTYPE
  5
259
330
5
100
AcDbSymbolTableRecord
100
AcDbLinetypeTableRecord
  2
CENTER2
 70
     0
  3
Center (.5x) ___ _ ___ _ ___ _ ___ _ ___ _ ___
 72
    65
 73
     4
 40
1.125
 49
0.75
 74
     0
 49
-0.125
 74
     0
 49
0.125
 74
     0
 49
-0.125
 74
     0
  0
LTYPE
  5
25A
330
5
100
AcDbSymbolTableRecord
100
AcDbLinetypeTableRecord
  2
HIDDEN2
 70
     0
  3
Hidden (.5x) _ _ _ _ _ _ _ _ _ _ _ _ _ _ _ _ _
 72
    65
 73
     2
 40
0.1875
 49
0.125
 74
     0
 49
-0.0625
 74
     0
  0
LTYPE
  5
25B
330
5
100
AcDbSymbolTableRecord
100
AcDbLinetypeTableRecord
  2
Amzigzag2
 70
     0
  3
/\/-/\/-/\/-/\/-/\/-/\/
 72
    65
 73
     2
 40
0.4401
 49
0.0001
 74
     4
 75
   136
340
257
 46
0.0016
 50
0.0
 44
0.0
 45
0.0
 49
-0.4400000000000001
 74
     0
  0
LTYPE
  5
26B
330
5
100
AcDbSymbolTableRecord
100
AcDbLinetypeTableRecord
  2
ACANSTGB
 70
     0
  3
__ . . __ . .
 72
    65
 73
     6
 40
0.35433070866
 49
0.15748031496
 74
     0
 49
-0.03937007874
 74
     0
 49
0.03937007874
 74
     0
 49
-0.03937007874
 74
     0
 49
0.03937007874
 74
     0
 49
-0.03937007874
 74
     0
  0
LTYPE
  5
26C
330
5
100
AcDbSymbolTableRecord
100
AcDbLinetypeTableRecord
  2
ACANSTGL
 70
     0
  3
_ _ _ _ _
 72
    65
 73
     2
 40
0.11811023622
 49
0.07874015748
 74
     0
 49
-0.03937007874
 74
     0
  0
ENDTAB
  0
TABLE
  2
LAYER
  5
2
102
{ACAD_XDICTIONARY
360
18E
102
}
330
0
100
AcDbSymbolTable
 70
    36
  0
LAYER
  5
10
102
{ACAD_XDICTIONARY
360
E6
102
}
330
2
100
AcDbSymbolTableRecord
100
AcDbLayerTableRecord
  2
0
 70
     0
 62
     7
  6
Continuous
370
    -3
390
F
347
98
348
0
  0
LAYER
  5
402
330
2
100
AcDbSymbolTableRecord
100
AcDbLayerTableRecord
  2
title block
 70
     0
 62
     1
  6
Continuous
370
    15
390
F
347
98
348
0
1001
AcAecLayerStandard
1000

1000

  0
LAYER
  5
404
330
2
100
AcDbSymbolTableRecord
100
AcDbLayerTableRecord
  2
address
 70
     0
 62
   250
  6
Continuous
370
    -3
390
F
347
98
348
0
1001
AcAecLayerStandard
1000

1000

  0
LAYER
  5
405
330
2
100
AcDbSymbolTableRecord
100
AcDbLayerTableRecord
  2
logos
 70
     0
 62
   255
  6
Continuous
370
    -3
390
F
347
98
348
0
1001
AcAecLayerStandard
1000

1000

  0
LAYER
  5
413
330
2
100
AcDbSymbolTableRecord
100
AcDbLayerTableRecord
  2
BORDER
 70
     0
 62
   251
  6
Continuous
370
    -3
390
F
347
98
348
0
1001
AcAecLayerStandard
1000

1000

  0
LAYER
  5
422
330
2
100
AcDbSymbolTableRecord
100
AcDbLayerTableRecord
  2
Layer 1
 70
     0
 62
     7
  6
Continuous
370
    -3
390
F
347
98
348
0
  0
LAYER
  5
423
330
2
100
AcDbSymbolTableRecord
100
AcDbLayerTableRecord
  2
MORTAIRVENT
 70
     0
 62
     3
  6
Continuous
370
    -3
390
F
347
98
348
0
1001
AcAecLayerStandard
1000

1000

  0
LAYER
  5
586
330
2
100
AcDbSymbolTableRecord
100
AcDbLayerTableRecord
  2
TITLE
 70
     0
 62
     1
  6
Continuous
370
    -3
390
F
347
98
348
0
1001
AcAecLayerStandard
1000

1000

1001
AcCmTransparency
1071
        0
  0
LAYER
  5
5AD
330
2
100
AcDbSymbolTableRecord
100
AcDbLayerTableRecord
  2
NOTES
 70
     0
 62
     7
  6
Continuous
370
    -3
390
F
347
98
348
0
1001
AcAecLayerStandard
1000

1000

1001
AcCmTransparency
1071
        0
  0
LAYER
  5
5C2
330
2
100
AcDbSymbolTableRecord
100
AcDbLayerTableRecord
  2
AM_VIEWS
 70
     0
 62
     1
  6
Continuous
290
     0
370
    15
390
F
347
98
348
0
1001
AcAecLayerStandard
1000

1000

  0
LAYER
  5
5D9
330
2
100
AcDbSymbolTableRecord
100
AcDbLayerTableRecord
  2
A-DE-35
 70
     0
 62
     1
  6
Continuous
370
    -3
390
F
347
98
348
0
1001
AcAecLayerStandard
1000

1000

  0
LAYER
  5
5DA
330
2
100
AcDbSymbolTableRecord
100
AcDbLayerTableRecord
  2
A-DE-10
 70
     0
 62
     6
  6
Continuous
370
    -3
390
F
347
98
348
0
1001
AcAecLayerStandard
1000

1000

  0
LAYER
  5
5DB
330
2
100
AcDbSymbolTableRecord
100
AcDbLayerTableRecord
  2
DRAINAGE MAT
 70
     0
 62
     1
  6
Continuous
370
    -3
390
F
347
98
348
0
1001
AcAecLayerStandard
1000

1000

1001
AcCmTransparency
1071
        0
  0
LAYER
  5
5DC
330
2
100
AcDbSymbolTableRecord
100
AcDbLayerTableRecord
  2
WRB
 70
     0
 62
     5
  6
Continuous
370
    -3
390
F
347
98
348
0
1001
AcAecLayerStandard
1000

1000

1001
AcCmTransparency
1071
        0
  0
LAYER
  5
5DD
330
2
100
AcDbSymbolTableRecord
100
AcDbLayerTableRecord
  2
HATCH
 70
     0
 62
     9
  6
Continuous
370
    -3
390
F
347
98
348
0
1001
AcAecLayerStandard
1000

1000

1001
AcCmTransparency
1071
        0
  0
LAYER
  5
5DE
330
2
100
AcDbSymbolTableRecord
100
AcDbLayerTableRecord
  2
ADHESIVE
 70
     0
 62
   250
  6
Continuous
370
    -3
390
F
347
98
348
0
1001
AcAecLayerStandard
1000

1000

1001
AcCmTransparency
1071
        0
  0
LAYER
  5
5DF
330
2
100
AcDbSymbolTableRecord
100
AcDbLayerTableRecord
  2
BRICK
 70
     0
 62
     7
  6
Continuous
370
    -3
390
F
347
98
348
0
1001
AcAecLayerStandard
1000

1000

1001
AcCmTransparency
1071
        0
  0
LAYER
  5
5E0
330
2
100
AcDbSymbolTableRecord
100
AcDbLayerTableRecord
  2
LEADERS
 70
     0
 62
     7
  6
Continuous
370
    -3
390
F
347
98
348
0
1001
AcAecLayerStandard
1000

1000

1001
AcCmTransparency
1071
        0
  0
LAYER
  5
5E1
330
2
100
AcDbSymbolTableRecord
100
AcDbLayerTableRecord
  2
SUBSTRATE
 70
     0
 62
     6
  6
Continuous
370
    -3
390
F
347
98
348
0
1001
AcAecLayerStandard
1000

1000

1001
AcCmTransparency
1071
        0
  0
LAYER
  5
5E2
330
2
100
AcDbSymbolTableRecord
100
AcDbLayerTableRecord
  2
MORTAR
 70
     0
 62
     3
  6
Continuous
370
    -3
390
F
347
98
348
0
1001
AcAecLayerStandard
1000

1000

1001
AcCmTransparency
1071
        0
  0
LAYER
  5
5E3
330
2
100
AcDbSymbolTableRecord
100
AcDbLayerTableRecord
  2
SCREW
 70
     0
 62
     8
  6
Continuous
370
    -3
390
F
347
98
348
0
1001
AcAecLayerStandard
1000

1000

1001
AcCmTransparency
1071
        0
  0
LAYER
  5
5E4
330
2
100
AcDbSymbolTableRecord
100
AcDbLayerTableRecord
  2
WALL CONSTRUCTION
 70
     0
 62
   252
  6
Continuous
370
    -3
390
F
347
98
348
0
1001
AcAecLayerStandard
1000

1000

1001
AcCmTransparency
1071
        0
  0
LAYER
  5
5E5
330
2
100
AcDbSymbolTableRecord
100
AcDbLayerTableRecord
  2
MORTAR HATCH
 70
     0
 62
     9
  6
Continuous
370
    -3
390
F
347
98
348
0
1001
AcAecLayerStandard
1000

1000

1001
AcCmTransparency
1071
        0
  0
LAYER
  5
99C
330
2
100
AcDbSymbolTableRecord
100
AcDbLayerTableRecord
  2
viewports
 70
     0
 62
     7
  6
Continuous
290
     0
370
    30
390
F
347
98
348
0
1001
AcAecLayerStandard
1000

1000

  0
LAYER
  5
12BB
330
2
100
AcDbSymbolTableRecord
100
AcDbLayerTableRecord
  2
DIMENSIONS
 70
     0
 62
     7
  6
Continuous
370
    -3
390
F
347
98
348
0
1001
AcAecLayerStandard
1000

1000

1001
AcCmTransparency
1071
        0
  0
LAYER
  5
12BC
330
2
100
AcDbSymbolTableRecord
100
AcDbLayerTableRecord
  2
A-DE-50
 70
     0
 62
     3
  6
Continuous
370
    -3
390
F
347
98
348
0
1001
AcAecLayerStandard
1000

1000

  0
LAYER
  5
12BD
330
2
100
AcDbSymbolTableRecord
100
AcDbLayerTableRecord
  2
CLASSIC PANEL
 70
     0
 62
     6
  6
Continuous
370
    -3
390
F
347
98
348
0
1001
AcAecLayerStandard
1000

1000

1001
AcCmTransparency
1071
        0
  0
LAYER
  5
12BE
330
2
100
AcDbSymbolTableRecord
100
AcDbLayerTableRecord
  2
A-NO
 70
     0
 62
     7
  6
Continuous
370
    -3
390
F
347
98
348
0
1001
AcAecLayerStandard
1000

1000

  0
LAYER
  5
12BF
330
2
100
AcDbSymbolTableRecord
100
AcDbLayerTableRecord
  2
A-DE-20
 70
     0
 62
     4
  6
Continuous
370
    -3
390
F
347
98
348
0
1001
AcAecLayerStandard
1000

1000

  0
LAYER
  5
143B
330
2
100
AcDbSymbolTableRecord
100
AcDbLayerTableRecord
  2
A-PA
 70
     0
 62
     9
  6
Continuous
370
    -3
390
F
347
98
348
0
1001
AcAecLayerStandard
1000

1000

  0
LAYER
  5
143C
330
2
100
AcDbSymbolTableRecord
100
AcDbLayerTableRecord
  2
BASE PLATE
 70
     0
 62
     6
  6
Continuous
370
    -3
390
F
347
98
348
0
1001
AcAecLayerStandard
1000

1000

1001
AcCmTransparency
1071
        0
  0
LAYER
  5
143D
330
2
100
AcDbSymbolTableRecord
100
AcDbLayerTableRecord
  2
FLASHING
 70
     0
 62
     8
  6
Continuous
370
    -3
390
F
347
98
348
0
  0
LAYER
  5
143E
330
2
100
AcDbSymbolTableRecord
100
AcDbLayerTableRecord
  2
WEEP HOLE
 70
     0
 62
     5
  6
HIDDEN2
370
    -3
390
F
347
98
348
0
1001
AcAecLayerStandard
1000

1000

1001
AcCmTransparency
1071
        0
  0
LAYER
  5
143F
330
2
100
AcDbSymbolTableRecord
100
AcDbLayerTableRecord
  2
FLASHING TAPE
 70
     0
 62
     1
  6
Continuous
370
    -3
390
F
347
98
348
0
1001
AcAecLayerStandard
1000

1000

1001
AcCmTransparency
1071
        0
  0
LAYER
  5
1440
330
2
100
AcDbSymbolTableRecord
100
AcDbLayerTableRecord
  2
SHINGLE
 70
     0
 62
    29
420
  5190698
430
DIC COLOR GUIDE(R)$DIC 311
  6
Continuous
370
    -3
390
F
347
98
348
0
1001
AcAecLayerStandard
1000

1000

  0
LAYER
  5
193D
330
2
100
AcDbSymbolTableRecord
100
AcDbLayerTableRecord
  2
SCALE
 70
     0
 62
     7
  6
Continuous
290
     0
370
    -3
390
F
347
98
348
0
1001
AcAecLayerStandard
1000

1000

  0
ENDTAB
  0
TABLE
  2
STYLE
  5
3
330
0
100
AcDbSymbolTable
 70
     8
  0
STYLE
  5
11
330
3
100
AcDbSymbolTableRecord
100
AcDbTextStyleTableRecord
  2
Standard
 70
     0
 40
0.0
 41
1.0
 50
0.0
 71
     0
 42
0.2
  3
arial.ttf
  4

1001
ACAD
1000
Arial
1071
       34
  0
STYLE
  5
DC
330
3
100
AcDbSymbolTableRecord
100
AcDbTextStyleTableRecord
  2
Annotative
 70
     0
 40
0.0
 41
1.0
 50
0.0
 71
     0
 42
0.2
  3
arial.ttf
  4

1001
AcadAnnotative
1000
AnnotativeData
1002
{
1070
     1
1070
     1
1002
}
1001
ACAD
1000
Arial
1071
       34
  0
STYLE
  5
257
330
3
100
AcDbSymbolTableRecord
100
AcDbTextStyleTableRecord
  2

 70
     1
 40
0.0
 41
1.0
 50
0.0
 71
     0
 42
0.2
  3
genltshp.shx
  4

  0
STYLE
  5
269
330
3
100
AcDbSymbolTableRecord
100
AcDbTextStyleTableRecord
  2
ACANSTS
 70
     0
 40
0.0
 41
1.0
 50
0.0
 71
     0
 42
0.2
  3
romans.shx
  4

  0
STYLE
  5
26A
330
3
100
AcDbSymbolTableRecord
100
AcDbTextStyleTableRecord
  2
ACANSGDT
 70
     0
 40
0.0
 41
1.0
 50
0.0
 71
     0
 42
0.2
  3
amgdt.shx
  4

  0
STYLE
  5
424
330
3
100
AcDbSymbolTableRecord
100
AcDbTextStyleTableRecord
  2
SMOOTH
 70
     0
 40
0.0
 41
1.0
 50
0.0
 71
     0
 42
0.5244619964034975
  3
ROMANS
  4

  0
STYLE
  5
425
330
3
100
AcDbSymbolTableRecord
100
AcDbTextStyleTableRecord
  2
DETAILS
 70
     0
 40
0.0
 41
1.0
 50
0.0
 71
     0
 42
0.09375
  3
sanss___.ttf
  4

1001
ACAD
1000
SansSerif
1071
      514
  0
STYLE
  5
587
330
3
100
AcDbSymbolTableRecord
100
AcDbTextStyleTableRecord
  2
Title
 70
     0
 40
0.09375
 41
1.0
 50
0.0
 71
     0
 42
0.09375
  3
times.ttf
  4

1001
ACAD
1000
Times New Roman
1071
       18
  0
ENDTAB
  0
TABLE
  2
VIEW
  5
6
330
0
100
AcDbSymbolTable
 70
     0
  0
ENDTAB
  0
TABLE
  2
UCS
  5
7
330
0
100
AcDbSymbolTable
 70
     0
  0
ENDTAB
  0
TABLE
  2
APPID
  5
9
330
0
100
AcDbSymbolTable
 70
    26
  0
APPID
  5
12
330
9
100
AcDbSymbolTableRecord
100
AcDbRegAppTableRecord
  2
ACAD
 70
     0
  0
APPID
  5
DD
330
9
100
AcDbSymbolTableRecord
100
AcDbRegAppTableRecord
  2
AcadAnnoPO
 70
     0
  0
APPID
  5
DE
330
9
100
AcDbSymbolTableRecord
100
AcDbRegAppTableRecord
  2
AcadAnnotative
 70
     0
  0
APPID
  5
DF
330
9
100
AcDbSymbolTableRecord
100
AcDbRegAppTableRecord
  2
ACAD_DSTYLE_DIMJAG
 70
     0
  0
APPID
  5
E0
330
9
100
AcDbSymbolTableRecord
100
AcDbRegAppTableRecord
  2
ACAD_DSTYLE_DIMTALN
 70
     0
  0
APPID
  5
107
330
9
100
AcDbSymbolTableRecord
100
AcDbRegAppTableRecord
  2
ACAD_MLEADERVER
 70
     0
  0
APPID
  5
1A6
330
9
100
AcDbSymbolTableRecord
100
AcDbRegAppTableRecord
  2
ACAD_NAV_VCDISPLAY
 70
     0
  0
APPID
  5
213
330
9
100
AcDbSymbolTableRecord
100
AcDbRegAppTableRecord
  2
MCAD_NO_VIS
 70
     0
  0
APPID
  5
214
330
9
100
AcDbSymbolTableRecord
100
AcDbRegAppTableRecord
  2
ACAD_TEMP_GRAPHIC
 70
     0
  0
APPID
  5
221
330
9
100
AcDbSymbolTableRecord
100
AcDbRegAppTableRecord
  2
ACATTRIBSERVICES
 70
     0
  0
APPID
  5
239
330
9
100
AcDbSymbolTableRecord
100
AcDbRegAppTableRecord
  2
DESIGNERASSEMBLIES
 70
     0
  0
APPID
  5
24E
330
9
100
AcDbSymbolTableRecord
100
AcDbRegAppTableRecord
  2
ACAD_DSTYLE_DIMBREAK
 70
     0
  0
APPID
  5
293
330
9
100
AcDbSymbolTableRecord
100
AcDbRegAppTableRecord
  2
ACAD_PSEXT
 70
     0
  0
APPID
  5
403
330
9
100
AcDbSymbolTableRecord
100
AcDbRegAppTableRecord
  2
AcAecLayerStandard
 70
     0
  0
APPID
  5
40F
330
9
100
AcDbSymbolTableRecord
100
AcDbRegAppTableRecord
  2
ACAD_EXEMPT_FROM_CAD_STANDARDS
 70
     0
  0
APPID
  5
41B
330
9
100
AcDbSymbolTableRecord
100
AcDbRegAppTableRecord
  2
GENIUS_GENREC_14
 70
     0
  0
APPID
  5
41C
330
9
100
AcDbSymbolTableRecord
100
AcDbRegAppTableRecord
  2
GENIUS_GENOBJ-N-REC_13
 70
     0
  0
APPID
  5
41D
330
9
100
AcDbSymbolTableRecord
100
AcDbRegAppTableRecord
  2
GENIUS_GENODEF_13
 70
     0
  0
APPID
  5
426
330
9
100
AcDbSymbolTableRecord
100
AcDbRegAppTableRecord
  2
GradientColor1ACI
 70
     0
  0
APPID
  5
588
330
9
100
AcDbSymbolTableRecord
100
AcDbRegAppTableRecord
  2
AcCmTransparency
 70
     0
  0
APPID
  5
594
330
9
100
AcDbSymbolTableRecord
100
AcDbRegAppTableRecord
  2
ACDBBLOCKREPETAG
 70
     0
  0
APPID
  5
5C3
330
9
100
AcDbSymbolTableRecord
100
AcDbRegAppTableRecord
  2
GENIUS_GENSCREG_15
 70
     0
  0
APPID
  5
5C4
330
9
100
AcDbSymbolTableRecord
100
AcDbRegAppTableRecord
  2
GENIUS_GENOBJ-N-SDF_13
 70
     0
  0
APPID
  5
5E6
330
9
100
AcDbSymbolTableRecord
100
AcDbRegAppTableRecord
  2
GradientColor2ACI
 70
     0
  0
APPID
  5
E42
330
9
100
AcDbSymbolTableRecord
100
AcDbRegAppTableRecord
  2
PE_URL
 70
     0
  0
APPID
  5
12C0
330
9
100
AcDbSymbolTableRecord
100
AcDbRegAppTableRecord
  2
AcDbDynamicBlockGUID
 70
     0
  0
ENDTAB
  0
TABLE
  2
DIMSTYLE
  5
A
330
0
100
AcDbSymbolTable
 70
     8
100
AcDbDimStyleTable
 71
     3
340
24D
340
27
340
E1
  0
DIMSTYLE
105
27
330
A
100
AcDbSymbolTableRecord
100
AcDbDimStyleTableRecord
  2
Standard
 70
     0
340
11
  0
DIMSTYLE
105
E1
330
A
100
AcDbSymbolTableRecord
100
AcDbDimStyleTableRecord
  2
Annotative
 70
     0
 40
0.0
340
11
1001
AcadAnnotative
1000
AnnotativeData
1002
{
1070
     1
1070
     1
1002
}
1001
ACAD_DSTYLE_DIMJAG
1070
   388
1040
1.5
1001
ACAD_DSTYLE_DIMTALN
1070
   392
1070
     0
  0
DIMSTYLE
105
24D
102
{ACAD_REACTORS
330
23D
102
}
330
A
100
AcDbSymbolTableRecord
100
AcDbDimStyleTableRecord
  2
AM_ANSI
 70
     0
  4
mm
 41
0.12
 42
0.05
 43
0.5
 44
0.1
 47
0.1
 48
0.1
 78
     7
 79
     2
 90
     1
140
0.12
141
0.0
146
0.71
147
0.06
176
   256
177
   256
178
     2
274
     4
284
     7
340
11
345
14
346
14
347
14
371
    -1
372
    -1
1001
ACAD_DSTYLE_DIMJAG
1070
   388
1040
1.5
1001
ACAD_DSTYLE_DIMBREAK
1070
   391
1040
0.125
  0
DIMSTYLE
105
25C
330
A
100
AcDbSymbolTableRecord
100
AcDbDimStyleTableRecord
  2
AM_ANSI$3
 70
     0
  4
mm
 41
0.12
 42
0.05
 43
0.5
 44
0.1
 47
0.1
 48
0.1
 78
     7
 79
     2
 90
     1
140
0.12
141
0.0
146
0.71
147
0.06
176
   256
177
   256
178
     2
274
     4
284
     7
288
     1
289
     0
340
11
345
14
346
14
347
14
371
    -1
372
    -1
1001
ACAD_DSTYLE_DIMBREAK
1070
   391
1040
0.125
1001
ACAD_DSTYLE_DIMJAG
1070
   388
1040
1.5
  0
DIMSTYLE
105
25D
330
A
100
AcDbSymbolTableRecord
100
AcDbDimStyleTableRecord
  2
AM_ANSI$4
 70
     0
  4
mm
 41
0.12
 42
0.05
 43
0.5
 44
0.1
 47
0.1
 48
0.1
 78
     7
 79
     2
 90
     1
140
0.12
141
0.0
146
0.71
147
0.06
176
   256
177
   256
178
     2
274
     4
284
     7
288
     1
289
     0
340
11
345
14
346
14
347
14
371
    -1
372
    -1
1001
ACAD_DSTYLE_DIMBREAK
1070
   391
1040
0.125
1001
ACAD_DSTYLE_DIMJAG
1070
   388
1040
1.5
  0
DIMSTYLE
105
25E
330
A
100
AcDbSymbolTableRecord
100
AcDbDimStyleTableRecord
  2
AM_ANSI$7
 70
     0
  4
mm
 41
0.12
 42
0.05
 43
0.5
 44
0.1
 47
0.1
 48
0.1
 78
     7
 79
     2
 90
     1
140
0.12
141
0.0
146
0.71
147
0.06
176
   256
177
   256
178
     2
274
     4
284
     7
340
11
345
14
346
14
347
14
371
    -1
372
    -1
1001
ACAD_DSTYLE_DIMBREAK
1070
   391
1040
0.125
1001
ACAD_DSTYLE_DIMJAG
1070
   388
1040
1.5
  0
DIMSTYLE
105
25F
330
A
100
AcDbSymbolTableRecord
100
AcDbDimStyleTableRecord
  2
AM_ANSI$SF
 70
     0
  4
mm
 41
0.12
 42
0.05
 43
0.5
 44
0.1
 47
0.1
 48
0.1
 75
     1
 76
     1
 78
     7
 79
     2
 90
     1
140
0.12
141
0.0
146
0.71
147
0.06
176
   256
177
   256
178
     2
274
     4
284
     7
340
11
345
14
346
14
347
14
371
    -1
372
    -1
1001
ACAD_DSTYLE_DIMBREAK
1070
   391
1040
0.125
1001
ACAD_DSTYLE_DIMJAG
1070
   388
1040
1.5
  0
DIMSTYLE
105
264
330
A
100
AcDbSymbolTableRecord
100
AcDbDimStyleTableRecord
  2
AM_ANSI$SH
 70
     0
  4
mm
 41
0.12
 42
0.05
 43
0.5
 44
0.1
 47
0.1
 48
0.1
 75
     1
 76
     1
 78
     7
 79
     2
 90
     1
140
0.12
141
0.0
146
0.71
147
0.06
173
     1
176
   256
177
   256
178
     2
274
     4
284
     7
340
11
343
260
345
14
346
14
347
14
371
    -1
372
    -1
1001
ACAD_DSTYLE_DIMBREAK
1070
   391
1040
0.125
1001
ACAD_DSTYLE_DIMJAG
1070
   388
1040
1.5
  0
ENDTAB
  0
TABLE
  2
BLOCK_RECORD
  5
1
330
0
100
AcDbSymbolTable
 70
     5
  0
BLOCK_RECORD
  5
1F
102
{ACAD_XDICTIONARY
360
15D
102
}
330
1
100
AcDbSymbolTableRecord
100
AcDbBlockTableRecord
  2
*Model_Space
340
22
 70
     0
280
     1
281
     0
  0
BLOCK_RECORD
  5
58
102
{ACAD_XDICTIONARY
360
AB7
102
}
330
1
100
AcDbSymbolTableRecord
100
AcDbBlockTableRecord
  2
*Paper_Space
340
59
 70
     0
280
     1
281
     0
  0
BLOCK_RECORD
  5
231
330
1
100
AcDbSymbolTableRecord
100
AcDbBlockTableRecord
  2
*U0
340
0
 70
     0
280
     1
281
     0
  0
BLOCK_RECORD
  5
260
330
1
100
AcDbSymbolTableRecord
100
AcDbBlockTableRecord
  2
GENAXEH
340
0
 70
     0
280
     1
281
     0
  0
BLOCK_RECORD
  5
26E
330
1
100
AcDbSymbolTableRecord
100
AcDbBlockTableRecord
  2
_ACMFILLEDHALF
340
0
 70
     0
280
     1
281
     0
  0
BLOCK_RECORD
  5
1217
330
1
100
AcDbSymbolTableRecord
100
AcDbBlockTableRecord
  2
_ArchTick
340
0
102
{BLKREFS
331
167F
331
1740
331
1743
331
1747
331
174A
331
1CBD
331
1CC0
102
}
 70
     0
280
     1
281
     0
  0
BLOCK_RECORD
  5
121B
102
{ACAD_XDICTIONARY
360
121C
102
}
330
1
100
AcDbSymbolTableRecord
100
AcDbBlockTableRecord
  2
#10 W #8 HEAD
340
0
310
28000000200000002000000001002000000000000010000001000000010000000000000000000000FFFFFFFFFFFFFFFFFFFFFFFFFFFFFFFFFFFFFFFFFFFFFFFFFFFFFFFFFFFFFFFFFFFFFFFFFFFFFFFFFFFFFFFFFFFFFFFFFFFFFFFFFFFFFFFFFFFFFFFFFFFFFFFFFFFFFFFFFFFFFFFFFFFFFFFFFFFFFFFFFFFFFFFFFFFFFF
310
FFFFFFFFFFFFFFFFFFFFFFFFFFFFFFFFFFFFFFFFFFFFFFFFFFFFFFFFFFFFFFFFFFFFFFFFFFFFFFFFFFFFFFFFFFFFFFFFFFFFFFFFFFFFFFFFFFFFFFFFFFFFFFFFFFFFFFFFFFFFFFFFFFFFFFFFFFFFFFFFFFFFFFFFFFFFFFFFFFFFFFFFFFFFFFFFFFFFFFFFFF808080FF808080FFFFFFFFFFFFFFFFFFFFFFFFFFFFFFFFFFFFFF
310
FFFFFFFFFFFFFFFFFFFFFFFFFFFFFFFFFFFFFFFFFFFFFFFFFFFFFFFFFFFFFFFFFFFFFFFFFFFFFFFFFFFFFFFFFFFFFFFFFFFFFFFFFFFFFFFFFFFFFFFFFFFFFFFFFFFFFFFFFFFFFFFFFFFFFFFFFFFFFFFFFFFFFFFFFFFFFFFFFFFFFFFFFFFFFFFFFFFFFFFFFFFF808080FF808080FFFFFFFFFFFFFFFFFFFFFFFFFFFFFFFFFFFF
310
FFFFFFFFFFFFFFFFFFFFFFFFFFFFFFFFFFFFFFFFFFFFFFFFFFFFFFFFFFFFFFFFFFFFFFFFFFFFFFFFFFFFFFFFFFFFFFFFFFFFFFFFFFFFFFFFFFFFFFFFFFFFFFFFFFFFFFFFFFFFFFFFFFFFFFFFFFFFFFFFFFFFFFFFFFFFFFFFFFFFFFFFFFFFFFFFFFFFFF808080FF808080FF808080FFFFFFFFFFFFFFFFFFFFFFFFFFFFFFFFFF
310
FFFFFFFFFFFFFFFFFFFFFFFFFFFFFFFFFFFFFFFFFFFFFFFFFFFFFFFFFFFFFFFFFFFFFFFFFFFFFFFFFFFFFFFFFFFFFFFFFFFFFFFFFFFFFFFFFFFFFFFFFFFFFFFFFFFFFFFFFFFFFFFFFFFFFFFFFFFFFFFFFFFFFFFFFFFFFFFFFFFFFFFFFFFFFFFFFFFFFFFF808080FF808080FF808080FF808080FFFFFFFFFFFFFFFFFFFFFFFF
310
FFFFFFFFFFFFFFFFFFFFFFFFFFFFFFFFFFFFFFFFFFFFFFFFFFFFFFFFFFFFFFFFFFFFFFFFFFFFFFFFFFFFFFFFFFFFFFFFFFFFFFFFFFFFFFFFFFFFFFFFFFFFFFFFFFFFFFFFFFFFFFFFFFFFFFFFFFFFFFFFFFFFFFFFFFFFFFFFFFFFFFFFFFFFFFFFFFFFFFFFFF808080FF808080FF808080FF808080FFFFFFFFFFFFFFFFFFFFFF
310
FFFFFFFFFFFFFFFFFFFFFFFFFFFFFFFFFFFFFFFFFFFFFFFFFFFFFFFFFFFFFFFFFFFFFFFFFFFFFFFFFFFFFFFFFFFFFFFFFFFFFFFFFFFFFFFFFFFFFFFFFFFFFFFFFFFFFFFFFFFFFFFFFFFFFFFFFFFFFFFFFFFFFFFFFFFFFFFFFFFFFFFFFFFFFFFFFFFFFFFFFFFF808080FF808080FF808080FF808080FFFFFFFFFFFFFFFFFFFF
310
FFFFFFFFFFFFFFFFFFFFFFFFFFFFFFFFFFFFFFFFFFFFFFFFFFFFFFFFFFFFFFFFFFFFFFFFFFFFFFFFFFFFFFFFFFFFFFFFFFFFFFFFFFFFFFFFFFFFFFFFFFFFFFFFFFFFFFFFFFFFFFFFFFFFFFFFFFFFFFFFFFFFFFFFFFFFFFFFFFFFFFFFFFFFFFFFFFFFFFFFFFFFFF808080FF808080FF808080FF808080FFFFFFFFFFFFFFFFFF
310
FFFFFFFFFFFFFFFFFFFFFFFFFFFFFFFFFFFFFFFFFFFFFFFFFFFFFFFFFFFFFFFFFFFFFFFFFFFFFFFFFFFFFFFFFFFFFFFFFFFFFFFFFFFFFFFFFFFFFFFFFFFFFFFFFFFFFFFFFFFFFFFFFFFFFFFFFFFFFFFFFFFFFFFFFFFFFFFFFFFFFFFFFFFFFFFFFFFFFFFFFFFFFFFF808080FF808080FF808080FF808080FFFFFFFFFFFFFFFF
310
FFFFFFFFFFFFFFFFFFFFFFFFFFFFFFFFFFFFFFFFFFFFFFFFFFFFFFFFFFFFFFFFFFFFFFFFFFFFFFFFFFFFFFFFFFFFFFFFFFFFFFFFFFFFFFFFFFFFFFFFFFFFFFFFFFFFFFFFFFFFFFFFFFFFFFFFFFFFFFFFFFFFFFFFFFFFFFFFFFFFFFFFFFFFFFFFFFFFFFFFFFFFFFFFFF808080FF808080FF808080FF808080FFFFFFFFFFFFFF
310
FFFFFFFFFFFFFFFFFFFFFFFFFFFFFFFFFFFFFFFFFFFFFFFFFFFFFFFFFFFFFFFFFFFFFFFFFFFFFFFFFFFFFFFFFFFFFFFFFFFFFFFFFFFFFFFFFFFFFFFFFFFFFFFFFFFFFFFFFFFFFFFFFFFFFFFFFFFFFFFFFFFFFFFFFFFFFFFFFFFFFFFFFFFFFFFFFFFFFFFFFFFFFFFFFFFF808080FF808080FF808080FF808080FFFFFFFFFFFF
310
FFFFFFFFFFFFFFFFFFFFFFFFFFFFFFFFFFFFFFFFFFFFFFFFFFFFFFFFFFFFFFFFFFFFFFFFFFFFFFFFFFFFFFFFFFFFFFFFFFFFFFFFFFFFFFFFFFFFFFFFFFFFFFFFFFFFFFFFFFFFFFFFFFFFFFFFFFFFFFFFFFFFFFFFFFFFFFFFFFFFFFFFFFFFFFFFFFFFFFFFFFFFFFFFFFFFFF808080FF808080FF808080FF808080FFFFFFFFFF
310
FFFFFFFFFFFFFFFFFFFFFFFFFFFFFFFFFFFFFFFFFFFFFFFFFFFFFFFFFFFFFFFFFFFFFFFFFFFFFFFFFFFFFFFFFFFFFFFFFFFFFFFFFFFFFFFFFFFFFFFFFFFFFFFFFFFFFFFFFFFFFFFFFFFFFFFFFFFFFFFFFFFFFFFFFFFFFFFFFFFFFFFFFFFFFFFFFFFFFFFFFFFFFFFFFFFFFFFF808080FF808080FF808080FF808080FFFFFFFF
310
FFFFFFFFFFFFFFFFFFFFFFFFFFFFFFFFFFFFFFFFFFFFFFFFFFFFFFFFFFFFFFFFFFFFFFFFFFFFFFFFFFFFFFFFFFFFFFFFFFFFFFFFFFFFFFFFFFFFFFFFFFFFFFFFFFFFFFFFFFFFFFFFFFFFFFFFFFFFFFFFFFFFFFFFFFFFFFFFFFFFFFFFFFFFFFFFFFFFFFFFFFFFFFFFFFFFFFFFFF808080FF808080FF808080FF808080FFFFFF
310
FFFFFFFFFFFFFFFFFFFFFFFFFFFFFFFFFFFFFFFFFFFFFFFFFFFFFFFFFFFFFFFFFFFFFFFFFFFFFFFFFFFFFFFFFFFFFFFFFFFFFFFFFFFFFFFFFFFFFFFFFFFFFFFFFFFFFFFFFFFFFFFFFFFFFFFFFFFFFFFFFFFFFFFFFFFFFFFFFFFFFFFFFFFFFFFFFFFFFFFFFFFFFFFFFFFFFFFFFFFF808080FF808080FF808080FF808080FFFF
310
FFFFFFFFFFFFFFFFFFFFFFFFFFFFFFFFFFFFFFFFFFFFFFFFFFFFFFFFFFFFFFFFFFFFFFFFFFFFFFFFFFFFFFFFFFFFFFFFFFFFFFFFFFFFFFFFFFFFFFFFFFFFFFFFFFFFFFFFFFFFFFFFFFFFFFFFFFFFFFFFFFFFFFFFFFFFFFFFFFFFFFFFFFFFFFFFFFFFFFFFFFFFFFFFFFFFFFFFFFFFFF808080FF808080FF808080FF808080FF
310
FFFFFFFFFFFFFFFFFFFFFFFFFFFFFFFFFFFFFFFFFFFFFFFFFFFFFFFFFFFFFFFFFFFFFFFFFFFFFFFFFFFFFFFFFFFFFFFFFFFFFFFFFFFFFFFFFFFFFFFFFFFFFFFFFFFFFFFFFFFFFFFFFFFFFFFFFFFFFFFFFFFFFFFFFFFFFFFFFFFFFFFFFFFFFFFFFFFFFFFFFFFFFFFFFFFFFFFFFFFFFFFF808080FF808080FF808080FF808080
310
FFFFFFFFFFFFFFFFFFFFFFFFFFFFFFFFFFFFFFFFFFFFFFFFFFFFFFFFFFFFFFFFFFFFFFFFFFFFFFFFFFFFFFFFFFFFFFFFFFFFFFFFFFFFFFFFFFFFFFFFFFFFFFFFFFFFFFFFFFFFFFFFFFFFFFFFFFFFFFFFFFFFFFFFFFFFFFFFFFFFFFFFFFFFFFFFFFFFFFFFFFFFFFFFFFFFFFFFFFFFFFFFFF808080FF808080FF808080FF8080
310
80FFFFFFFFFFFFFFFFFFFFFFFFFFFFFFFFFFFFFFFFFFFFFFFFFFFFFFFFFFFFFFFFFFFFFFFFFFFFFFFFFFFFFFFFFFFFFFFFFFFFFFFFFFFFFFFFFFFFFFFFFFFFFFFFFFFFFFFFFFFFFFFFFFFFFFFFFFFFFFFFFFFFFFFFFFFFFFFFFFFFFFFFFFFFFFFFFFFFFFFFFFFFFFFFFFFFFFFFFFFFFFFFFF808080FF808080FF808080FF80
310
8080FFFFFFFFFFFFFFFFFFFFFFFFFFFFFFFFFFFFFFFFFFFFFFFFFFFFFFFFFFFFFFFFFFFFFFFFFFFFFFFFFFFFFFFFFFFFFFFFFFFFFFFFFFFFFFFFFFFFFFFFFFFFFFFFFFFFFFFFFFFFFFFFFFFFFFFFFFFFFFFFFFFFFFFFFFFFFFFFFFFFFFFFFFFFFFFFFFFFFFFFFFFFFFFFFFFFFFFFFFFFFFFFFF808080FF808080FF808080FF
310
808080FFFFFFFFFFFFFFFFFFFFFFFFFFFFFFFFFFFFFFFFFFFFFFFFFFFFFFFFFFFFFFFFFFFFFFFFFFFFFFFFFFFFFFFFFFFFFFFFFFFFFFFFFFFFFFFFFFFFFFFFFFFFFFFFFFFFFFFFFFFFFFFFFFFFFFFFFFFFFFFFFFFFFFFFFFFFFFFFFFFFFFFFFFFFFFFFFFFFFFFFFFFFFFFFFFFFFFFFFFFFFFFFFF808080FF808080FF808080
310
FF808080FFFFFFFFFFFFFFFFFFFFFFFFFFFFFFFFFFFFFFFFFFFFFFFFFFFFFFFFFFFFFFFFFFFFFFFFFFFFFFFFFFFFFFFFFFFFFFFFFFFFFFFFFFFFFFFFFFFFFFFFFFFFFFFFFFFFFFFFFFFFFFFFFFFFFFFFFFFFFFFFFFFFFFFFFFFFFFFFFFFFFFFFFFFFFFFFFFFFFFFFFFFFFFFFFFFFFFFFFFFFFFFFFF808080FF808080FF8080
310
80FF808080FFFFFFFFFFFFFFFFFFFFFFFFFFFFFFFFFFFFFFFFFFFFFFFFFFFFFFFFFFFFFFFFFFFFFFFFFFFFFFFFFFFFFFFFFFFFFFFFFFFFFFFFFFFFFFFFFFFFFFFFFFFFFFFFFFFFFFFFFFFFFFFFFFFFFFFFFFFFFFFFFFFFFFFFFFFFFFFFFFFFFFFFFFFFFFFFFFFFFFFFFFFFFFFFFFFFFFFFFFFFFFFFFF808080FF808080FF80
310
8080FF808080FFFFFFFFFFFFFFFFFFFFFFFFFFFFFFFFFFFFFFFFFFFFFFFFFFFFFFFFFFFFFFFFFFFFFFFFFFFFFFFFFFFFFFFFFFFFFFFFFFFFFFFFFFFFFFFFFFFFFFFFFFFFFFFFFFFFFFFFFFFFFFFFFFFFFFFFFFFFFFFFFFFFFFFFFFFFFFFFFFFFFFFFFFFFFFFFFFFFFFFFFFFFFFFFFFFFFFFFFFFFFFFFFF808080FF808080FF
310
808080FF808080FFFFFFFFFFFFFFFFFFFFFFFFFFFFFFFFFFFFFFFFFFFFFFFFFFFFFFFFFFFFFFFFFFFFFFFFFFFFFFFFFFFFFFFFFFFFFFFFFFFFFFFFFFFFFFFFFFFFFFFFFFFFFFFFFFFFFFFFFFFFFFFFFFFFFFFFFFFFFFFFFFFFFFFFFFFFFFFFFFFFFFFFFFFFFFFFFFFFFFFFFFFFFFFFFFFFFFFFFFFFFFFFFF808080FF808080
310
FF808080FF808080FFFFFFFFFFFFFFFFFFFFFFFFFFFFFFFFFFFFFFFFFFFFFFFFFFFFFFFFFFFFFFFFFFFFFFFFFFFFFFFFFFFFFFFFFFFFFFFFFFFFFFFFFFFFFFFFFFFFFFFFFFFFFFFFFFFFFFFFFFFFFFFFFFFFFFFFFFFFFFFFFFFFFFFFFFFFFFFFFFFFFFFFFFFFFFFFFFFFFFFFFFFFFFFFFFFFFFFFFFFFFFFFFF808080FF8080
310
80FF808080FF808080FFFFFFFFFFFFFFFFFFFFFFFFFFFFFFFFFFFFFFFFFFFFFFFFFFFFFFFFFFFFFFFFFFFFFFFFFFFFFFFFFFFFFFFFFFFFFFFFFFFFFFFFFFFFFFFFFFFFFFFFFFFFFFFFFFFFFFFFFFFFFFFFFFFFFFFFFFFFFFFFFFFFFFFFFFFFFFFFFFFFFFFFFFFFFFFFFFFFFFFFFFFFFFFFFFFFFFFFFFFFFFFFFF808080FF80
310
8080FF808080FF808080FFFFFFFFFFFFFFFFFFFFFFFFFFFFFFFFFFFFFFFFFFFFFFFFFFFFFFFFFFFFFFFFFFFFFFFFFFFFFFFFFFFFFFFFFFFFFFFFFFFFFFFFFFFFFFFFFFFFFFFFFFFFFFFFFFFFFFFFFFFFFFFFFFFFFFFFFFFFFFFFFFFFFFFFFFFFFFFFFFFFFFFFFFFFFFFFFFFFFFFFFFFFFFFFFFFFFFFFFFFFFFFFFF808080FF
310
808080FF808080FF808080FFFFFFFFFFFFFFFFFFFFFFFFFFFFFFFFFFFFFFFFFFFFFFFFFFFFFFFFFFFFFFFFFFFFFFFFFFFFFFFFFFFFFFFFFFFFFFFFFFFFFFFFFFFFFFFFFFFFFFFFFFFFFFFFFFFFFFFFFFFFFFFFFFFFFFFFFFFFFFFFFFFFFFFFFFFFFFFFFFFFFFFFFFFFFFFFFFFFFFFFFFFFFFFFFFFFFFFFFF808080FF808080
310
FF808080FF808080FF808080FF808080FFFFFFFFFFFFFFFFFFFFFFFFFFFFFFFFFFFFFFFFFFFFFFFFFFFFFFFFFFFFFFFFFFFFFFFFFFFFFFFFFFFFFFFFFFFFFFFFFFFFFFFFFFFFFFFFFFFFFFFFFFFFFFFFFFFFFFFFFFFFFFFFFFFFFFFFFFFFFFFFFFFFFFFFFFFFFFFFFFFFFFFFFFFFFFFFFFFFFFFFFFFFFFFFFF808080FF8080
310
80FF808080FF808080FF808080FF808080FFFFFFFFFFFFFFFFFFFFFFFFFFFFFFFFFFFFFFFFFFFFFFFFFFFFFFFFFFFFFFFFFFFFFFFFFFFFFFFFFFFFFFFFFFFFFFFFFFFFFFFFFFFFFFFFFFFFFFFFFFFFFFFFFFFFFFFFFFFFFFFFFFFFFFFFFFFFFFFFFFFFFFFFFFFFFFFFFFFFFFFFFFFFFFFFFFFFFFFFFFFFFFFFFFFFFFFFFFFF
310
FFFFFF808080FF808080FFFFFFFFFFFFFFFFFFFFFFFFFFFFFFFFFFFFFFFFFFFFFFFFFFFFFFFFFFFFFFFFFFFFFFFFFFFFFFFFFFFFFFFFFFFFFFFFFFFFFFFFFFFFFFFFFFFFFFFFFFFFFFFFFFFFFFFFFFFFFFFFFFFFFFFFFFFFFFFFFFFFFFFFFFFFFFFFFFFFFFFFFFFFFFFFFFFFFFFFFFFFFFFFFFFFFFFFFFFFFFFFFFFFFFFFFF
310
FFFFFFFFFFFFFFFFFFFFFFFFFFFFFFFFFFFFFFFFFFFFFFFFFFFFFFFFFFFFFFFFFFFFFFFFFFFFFFFFFFFFFFFFFFFFFFFFFFFFFFFFFFFFFFFFFFFFFFFFFFFFFFFFFFFFFFFFFFFFFFFF
 70
     1
280
     1
281
     0
1001
AcDbDynamicBlockGUID
1000
{3265CE84-6709-7240-AA68-B23440B97AE8}
  0
ENDTAB
  0
ENDSEC
  0
SECTION
  2
BLOCKS
  0
BLOCK
  5
20
330
1F
100
AcDbEntity
  8
0
100
AcDbBlockBegin
  2
*Model_Space
 70
     0
 10
0.0
 20
0.0
 30
0.0
  3
*Model_Space
  1

  0
ENDBLK
  5
21
330
1F
100
AcDbEntity
  8
0
100
AcDbBlockEnd
  0
BLOCK
  5
5A
330
58
100
AcDbEntity
 67
     1
  8
0
100
AcDbBlockBegin
  2
*Paper_Space
 70
     0
 10
0.0
 20
0.0
 30
0.0
  3
*Paper_Space
  1

  0
ENDBLK
  5
5B
330
58
100
AcDbEntity
 67
     1
  8
0
100
AcDbBlockEnd
  0
BLOCK
  5
232
330
231
100
AcDbEntity
  8
0
100
AcDbBlockBegin
  2
*U0
 70
     1
 10
0.0
 20
0.0
 30
0.0
  3
*U0
  1

  0
ENDBLK
  5
233
330
231
100
AcDbEntity
  8
0
100
AcDbBlockEnd
  0
BLOCK
  5
262
330
260
100
AcDbEntity
  8
0
100
AcDbBlockBegin
  2
GENAXEH
 70
     0
 10
0.0
 20
0.0
 30
0.0
  3
GENAXEH
  1

  0
LINE
  5
261
330
260
100
AcDbEntity
  8
0
100
AcDbLine
 10
-1.0
 20
0.0
 30
0.0
 11
1.0
 21
0.0
 31
0.0
  0
ENDBLK
  5
263
330
260
100
AcDbEntity
  8
0
100
AcDbBlockEnd
  0
BLOCK
  5
26F
330
26E
100
AcDbEntity
  8
0
100
AcDbBlockBegin
  2
_ACMFILLEDHALF
 70
     0
 10
0.0
 20
0.0
 30
0.0
  3
_ACMFILLEDHALF
  1

  0
TRACE
  5
271
330
26E
100
AcDbEntity
  8
0
 62
     0
100
AcDbTrace
 10
-0.8
 20
0.0
 30
0.0
 11
-1.0
 21
0.166666666
 31
0.0
 12
0.0
 22
0.0
 32
0.0
 13
0.0
 23
0.0
 33
0.0
  0
LINE
  5
272
330
26E
100
AcDbEntity
  8
0
 62
     0
100
AcDbLine
 10
-1.0
 20
0.0
 30
0.0
 11
-0.8
 21
0.0
 31
0.0
  0
ENDBLK
  5
270
330
26E
100
AcDbEntity
  8
0
100
AcDbBlockEnd
  0
BLOCK
  5
1218
330
1217
100
AcDbEntity
  8
0
100
AcDbBlockBegin
  2
_ArchTick
 70
     0
 10
0.0
 20
0.0
 30
0.0
  3
_ArchTick
  1

  0
LWPOLYLINE
  5
1219
330
1217
100
AcDbEntity
  8
0
  6
ByBlock
 62
     0
100
AcDbPolyline
 90
        2
 70
     0
 43
0.15
 10
-0.5
 20
-0.5
 10
0.5
 20
0.5
  0
ENDBLK
  5
121A
330
1217
100
AcDbEntity
  8
0
100
AcDbBlockEnd
  0
BLOCK
  5
121D
330
121B
100
AcDbEntity
  8
0
100
AcDbBlockBegin
  2
#10 W #8 HEAD
 70
     0
 10
0.0
 20
0.0
 30
0.0
  3
#10 W #8 HEAD
  1

  0
LINE
  5
121E
330
121B
100
AcDbEntity
  8
SCREW
100
AcDbLine
 10
21.81260714856896
 20
5.009847610514247
 30
0.0
 11
21.96578378692021
 21
5.07503547330924
 31
0.0
  0
LINE
  5
121F
330
121B
100
AcDbEntity
  8
SCREW
100
AcDbLine
 10
21.80186283658207
 20
5.031815237283202
 30
0.0
 11
21.95622097128703
 21
5.097505913190074
 31
0.0
  0
LINE
  5
1220
330
121B
100
AcDbEntity
  8
SCREW
100
AcDbLine
 10
21.81260714856896
 20
4.939008211491966
 30
0.0
 11
21.96578378692021
 21
5.004196074286959
 31
0.0
  0
LINE
  5
1221
330
121B
100
AcDbEntity
  8
SCREW
100
AcDbLine
 10
21.80186283658207
 20
4.960975838260919
 30
0.0
 11
21.95622097128703
 21
5.026666514167793
 31
0.0
  0
LINE
  5
1222
330
121B
100
AcDbEntity
  8
SCREW
100
AcDbLine
 10
21.81260714856896
 20
4.868168812469685
 30
0.0
 11
21.96578378692021
 21
4.933356675264677
 31
0.0
  0
LINE
  5
1223
330
121B
100
AcDbEntity
  8
SCREW
100
AcDbLine
 10
21.80186283658207
 20
4.890136439238636
 30
0.0
 11
21.95622097128703
 21
4.955827115145511
 31
0.0
  0
LINE
  5
1224
330
121B
100
AcDbEntity
  8
SCREW
100
AcDbLine
 10
21.81260714856896
 20
4.797329413447402
 30
0.0
 11
21.96578378692021
 21
4.862517276242394
 31
0.0
  0
LINE
  5
1225
330
121B
100
AcDbEntity
  8
SCREW
100
AcDbLine
 10
21.80186283658207
 20
4.819297040216355
 30
0.0
 11
21.95622097128703
 21
4.884987716123228
 31
0.0
  0
LINE
  5
1226
330
121B
100
AcDbEntity
  8
SCREW
100
AcDbLine
 10
21.81260714856896
 20
4.726490014425118
 30
0.0
 11
21.96578378692021
 21
4.791677877220111
 31
0.0
  0
LINE
  5
1227
330
121B
100
AcDbEntity
  8
SCREW
100
AcDbLine
 10
21.80186283658207
 20
4.748457641194073
 30
0.0
 11
21.95622097128703
 21
4.814148317100945
 31
0.0
  0
LINE
  5
1228
330
121B
100
AcDbEntity
  8
SCREW
100
AcDbLine
 10
21.81260714856896
 20
4.655650615402837
 30
0.0
 11
21.96578378692021
 21
4.720838478197832
 31
0.0
  0
LINE
  5
1229
330
121B
100
AcDbEntity
  8
SCREW
100
AcDbLine
 10
21.80186283658207
 20
4.67761824217179
 30
0.0
 11
21.95622097128703
 21
4.743308918078666
 31
0.0
  0
LINE
  5
122A
330
121B
100
AcDbEntity
  8
SCREW
100
AcDbLine
 10
21.81260714856896
 20
4.584811216380556
 30
0.0
 11
21.96578378692021
 21
4.649999079175548
 31
0.0
  0
LINE
  5
122B
330
121B
100
AcDbEntity
  8
SCREW
100
AcDbLine
 10
21.80186283658207
 20
4.606778843149509
 30
0.0
 11
21.95622097128703
 21
4.672469519056383
 31
0.0
  0
LINE
  5
122C
330
121B
100
AcDbEntity
  8
SCREW
100
AcDbLine
 10
21.81260714856896
 20
4.513971817358273
 30
0.0
 11
21.96578378692021
 21
4.579159680153265
 31
0.0
  0
LINE
  5
122D
330
121B
100
AcDbEntity
  8
SCREW
100
AcDbLine
 10
21.80186283658207
 20
4.535939444127226
 30
0.0
 11
21.95622097128703
 21
4.6016301200341
 31
0.0
  0
LINE
  5
122E
330
121B
100
AcDbEntity
  8
SCREW
100
AcDbLine
 10
21.81260714856896
 20
3.80557782713538
 30
0.0
 11
21.96578378692021
 21
3.870765689930372
 31
0.0
  0
LINE
  5
122F
330
121B
100
AcDbEntity
  8
SCREW
100
AcDbLine
 10
21.80186283658207
 20
3.827545453904333
 30
0.0
 11
21.95622097128703
 21
3.893236129811207
 31
0.0
  0
LINE
  5
1230
330
121B
100
AcDbEntity
  8
SCREW
100
AcDbLine
 10
21.81260714856896
 20
3.734738428113097
 30
0.0
 11
21.96578378692021
 21
3.79992629090809
 31
0.0
  0
LINE
  5
1231
330
121B
100
AcDbEntity
  8
SCREW
100
AcDbLine
 10
21.80186283658207
 20
3.756706054882051
 30
0.0
 11
21.95622097128703
 21
3.822396730788924
 31
0.0
  0
LINE
  5
1232
330
121B
100
AcDbEntity
  8
SCREW
100
AcDbLine
 10
21.81260714856896
 20
3.663899029090816
 30
0.0
 11
21.96578378692021
 21
3.729086891885809
 31
0.0
  0
LINE
  5
1233
330
121B
100
AcDbEntity
  8
SCREW
100
AcDbLine
 10
21.80186283658207
 20
3.685866655859769
 30
0.0
 11
21.95622097128703
 21
3.751557331766643
 31
0.0
  0
LINE
  5
1234
330
121B
100
AcDbEntity
  8
SCREW
100
AcDbLine
 10
21.81260714856896
 20
3.593059630068533
 30
0.0
 11
21.96578378692021
 21
3.658247492863526
 31
0.0
  0
LINE
  5
1235
330
121B
100
AcDbEntity
  8
SCREW
100
AcDbLine
 10
21.80186283658207
 20
3.615027256837486
 30
0.0
 11
21.95622097128703
 21
3.68071793274436
 31
0.0
  0
LINE
  5
1236
330
121B
100
AcDbEntity
  8
SCREW
100
AcDbLine
 10
21.81260714856894
 20
3.381433846310281
 30
0.0
 11
21.9657837869202
 21
3.446621709105274
 31
0.0
  0
LINE
  5
1237
330
121B
100
AcDbEntity
  8
SCREW
100
AcDbLine
 10
21.80186283658205
 20
3.403401473079235
 30
0.0
 11
21.95622097128701
 21
3.469092148986108
 31
0.0
  0
LINE
  5
1238
330
121B
100
AcDbEntity
  8
SCREW
100
AcDbLine
 10
21.82045207146392
 20
5.077067634417108
 30
0.0
 11
21.82045207146392
 21
5.039726316322317
 31
0.0
  0
LINE
  5
1239
330
121B
100
AcDbEntity
  8
SCREW
100
AcDbLine
 10
21.82045207146392
 20
5.013186198975386
 30
0.0
 11
21.82045207146392
 21
4.96888691730003
 31
0.0
  0
ARC
  5
123A
330
121B
100
AcDbEntity
  8
SCREW
100
AcDbCircle
 10
21.57762887921978
 20
4.997595711984443
 30
0.0
 40
0.2554973368682796
100
AcDbArc
 50
18.12239606593879
 51
24.6596721759492
  0
ARC
  5
123B
330
121B
100
AcDbEntity
  8
SCREW
100
AcDbCircle
 10
21.80723499257551
 20
5.020831423898725
 30
0.0
 40
0.0122271916842302
100
AcDbArc
 50
110.0434587331205
 51
296.0631427173529
  0
LINE
  5
123C
330
121B
100
AcDbEntity
  8
SCREW
100
AcDbLine
 10
21.96083381776741
 20
5.027886293104623
 30
0.0
 11
21.96083381776742
 21
5.072928899399252
 31
0.0
  0
LINE
  5
123D
330
121B
100
AcDbEntity
  8
SCREW
100
AcDbLine
 10
21.96083381776742
 20
5.098725692126905
 30
0.0
 11
21.96083381776742
 21
5.104196230643454
 31
0.0
  0
ARC
  5
123E
330
121B
100
AcDbEntity
  8
SCREW
100
AcDbCircle
 10
21.96159312728031
 20
5.086522099805522
 30
0.0
 40
0.0122271916842302
100
AcDbArc
 50
290.0434587308119
 51
116.063142715918
  0
ARC
  5
123F
330
121B
100
AcDbEntity
  8
SCREW
100
AcDbCircle
 10
21.80723499257551
 20
4.949992024876442
 30
0.0
 40
0.0122271916842302
100
AcDbArc
 50
110.0434587331205
 51
296.0631427173529
  0
ARC
  5
1240
330
121B
100
AcDbEntity
  8
SCREW
100
AcDbCircle
 10
21.96159312728031
 20
5.015682700783239
 30
0.0
 40
0.0122271916842302
100
AcDbArc
 50
290.0434587308119
 51
116.063142715918
  0
ARC
  5
1241
330
121B
100
AcDbEntity
  8
SCREW
100
AcDbCircle
 10
21.88403440517145
 20
3.247394070417191
 30
0.0
 40
0.0161267757294318
100
AcDbArc
 50
270.0
 51
0.0000000000170987
  0
ARC
  5
1242
330
121B
100
AcDbEntity
  8
SCREW
100
AcDbCircle
 10
21.33804971470228
 20
3.135782285700766
 30
0.0
 40
0.5414855494839421
100
AcDbArc
 50
11.89515533568119
 51
27.01509925826169
  0
ARC
  5
1243
330
121B
100
AcDbEntity
  8
SCREW
100
AcDbCircle
 10
21.88403440517145
 20
3.247394070417191
 30
0.0
 40
0.0161267757294318
100
AcDbArc
 50
179.9999999999829
 51
270.0
  0
ARC
  5
1244
330
121B
100
AcDbEntity
  8
SCREW
100
AcDbCircle
 10
22.43001909564061
 20
3.135782285700766
 30
0.0
 40
0.5414855494839421
100
AcDbArc
 50
150.0518963641911
 51
168.1048446643186
  0
LINE
  5
1245
330
121B
100
AcDbEntity
  8
SCREW
100
AcDbLine
 10
21.82045207146392
 20
4.942346799953105
 30
0.0
 11
21.82045207146392
 21
4.898047518277747
 31
0.0
  0
LINE
  5
1246
330
121B
100
AcDbEntity
  8
SCREW
100
AcDbLine
 10
21.96083381776741
 20
4.95704689408234
 30
0.0
 11
21.96083381776742
 21
5.002089500376971
 31
0.0
  0
ARC
  5
1247
330
121B
100
AcDbEntity
  8
SCREW
100
AcDbCircle
 10
21.80723499257551
 20
4.87915262585416
 30
0.0
 40
0.0122271916842302
100
AcDbArc
 50
110.0434587331205
 51
296.0631427173529
  0
ARC
  5
1248
330
121B
100
AcDbEntity
  8
SCREW
100
AcDbCircle
 10
21.96159312728031
 20
4.944843301760956
 30
0.0
 40
0.0122271916842302
100
AcDbArc
 50
290.0434587308119
 51
116.063142715918
  0
LINE
  5
1249
330
121B
100
AcDbEntity
  8
SCREW
100
AcDbLine
 10
21.82045207146392
 20
4.871507400930822
 30
0.0
 11
21.82045207146392
 21
4.827208119255464
 31
0.0
  0
LINE
  5
124A
330
121B
100
AcDbEntity
  8
SCREW
100
AcDbLine
 10
21.96083381776741
 20
4.886207495060059
 30
0.0
 11
21.96083381776742
 21
4.93125010135469
 31
0.0
  0
ARC
  5
124B
330
121B
100
AcDbEntity
  8
SCREW
100
AcDbCircle
 10
21.80723499257551
 20
4.808313226831879
 30
0.0
 40
0.0122271916842302
100
AcDbArc
 50
110.0434587331205
 51
296.0631427173529
  0
ARC
  5
124C
330
121B
100
AcDbEntity
  8
SCREW
100
AcDbCircle
 10
21.96159312728031
 20
4.874003902738676
 30
0.0
 40
0.0122271916842302
100
AcDbArc
 50
290.0434587308119
 51
116.063142715918
  0
LINE
  5
124D
330
121B
100
AcDbEntity
  8
SCREW
100
AcDbLine
 10
21.82045207146392
 20
4.800668001908539
 30
0.0
 11
21.82045207146392
 21
4.756368720233185
 31
0.0
  0
LINE
  5
124E
330
121B
100
AcDbEntity
  8
SCREW
100
AcDbLine
 10
21.96083381776741
 20
4.815368096037778
 30
0.0
 11
21.96083381776742
 21
4.860410702332407
 31
0.0
  0
ARC
  5
124F
330
121B
100
AcDbEntity
  8
SCREW
100
AcDbCircle
 10
21.80723499257551
 20
4.737473827809596
 30
0.0
 40
0.0122271916842302
100
AcDbArc
 50
110.0434587331205
 51
296.0631427173529
  0
ARC
  5
1250
330
121B
100
AcDbEntity
  8
SCREW
100
AcDbCircle
 10
21.96159312728031
 20
4.803164503716393
 30
0.0
 40
0.0122271916842302
100
AcDbArc
 50
290.0434587308119
 51
116.063142715918
  0
LINE
  5
1251
330
121B
100
AcDbEntity
  8
SCREW
100
AcDbLine
 10
21.82045207146392
 20
4.729828602886259
 30
0.0
 11
21.82045207146392
 21
4.685529321210902
 31
0.0
  0
LINE
  5
1252
330
121B
100
AcDbEntity
  8
SCREW
100
AcDbLine
 10
21.96083381776741
 20
4.744528697015494
 30
0.0
 11
21.96083381776742
 21
4.789571303310124
 31
0.0
  0
ARC
  5
1253
330
121B
100
AcDbEntity
  8
SCREW
100
AcDbCircle
 10
21.80723499257551
 20
4.666634428787315
 30
0.0
 40
0.0122271916842302
100
AcDbArc
 50
110.0434587331205
 51
296.0631427173527
  0
ARC
  5
1254
330
121B
100
AcDbEntity
  8
SCREW
100
AcDbCircle
 10
21.96159312728031
 20
4.73232510469411
 30
0.0
 40
0.0122271916842302
100
AcDbArc
 50
290.0434587308119
 51
116.063142715918
  0
LINE
  5
1255
330
121B
100
AcDbEntity
  8
SCREW
100
AcDbLine
 10
21.82045207146392
 20
4.658989203863976
 30
0.0
 11
21.82045207146392
 21
4.614689922188619
 31
0.0
  0
LINE
  5
1256
330
121B
100
AcDbEntity
  8
SCREW
100
AcDbLine
 10
21.96083381776741
 20
4.673689297993211
 30
0.0
 11
21.96083381776742
 21
4.718731904287842
 31
0.0
  0
ARC
  5
1257
330
121B
100
AcDbEntity
  8
SCREW
100
AcDbCircle
 10
21.80723499257551
 20
4.595795029765032
 30
0.0
 40
0.0122271916842302
100
AcDbArc
 50
110.0434587331205
 51
296.0631427173527
  0
ARC
  5
1258
330
121B
100
AcDbEntity
  8
SCREW
100
AcDbCircle
 10
21.96159312728031
 20
4.661485705671829
 30
0.0
 40
0.0122271916842302
100
AcDbArc
 50
290.0434587308119
 51
116.063142715918
  0
LINE
  5
1259
330
121B
100
AcDbEntity
  8
SCREW
100
AcDbLine
 10
21.82045207146392
 20
4.588149804841693
 30
0.0
 11
21.82045207146392
 21
4.543850523166337
 31
0.0
  0
LINE
  5
125A
330
121B
100
AcDbEntity
  8
SCREW
100
AcDbLine
 10
21.96083381776741
 20
4.60284989897093
 30
0.0
 11
21.96083381776742
 21
4.647892505265561
 31
0.0
  0
ARC
  5
125B
330
121B
100
AcDbEntity
  8
SCREW
100
AcDbCircle
 10
21.80723499257551
 20
4.52495563074275
 30
0.0
 40
0.0122271916842302
100
AcDbArc
 50
110.0434587331205
 51
296.0631427173527
  0
ARC
  5
125C
330
121B
100
AcDbEntity
  8
SCREW
100
AcDbCircle
 10
21.96159312728031
 20
4.590646306649547
 30
0.0
 40
0.0122271916842302
100
AcDbArc
 50
290.0434587308119
 51
116.063142715918
  0
LINE
  5
125D
330
121B
100
AcDbEntity
  8
SCREW
100
AcDbLine
 10
21.82045207146392
 20
3.8797558146188
 30
0.0
 11
21.82045207146392
 21
3.835456532943443
 31
0.0
  0
LINE
  5
125E
330
121B
100
AcDbEntity
  8
SCREW
100
AcDbLine
 10
21.96083381776741
 20
3.894455908748036
 30
0.0
 11
21.96083381776742
 21
3.939498515042667
 31
0.0
  0
ARC
  5
125F
330
121B
100
AcDbEntity
  8
SCREW
100
AcDbCircle
 10
21.80723499257551
 20
3.816561640519856
 30
0.0
 40
0.0122271916842302
100
AcDbArc
 50
110.0434587331205
 51
296.0631427173527
  0
ARC
  5
1260
330
121B
100
AcDbEntity
  8
SCREW
100
AcDbCircle
 10
21.96159312728031
 20
3.882252316426654
 30
0.0
 40
0.0122271916842302
100
AcDbArc
 50
290.0434587308119
 51
116.063142715918
  0
LINE
  5
1261
330
121B
100
AcDbEntity
  8
SCREW
100
AcDbLine
 10
21.82045207146392
 20
3.808916415596518
 30
0.0
 11
21.82045207146392
 21
3.764617133921162
 31
0.0
  0
LINE
  5
1262
330
121B
100
AcDbEntity
  8
SCREW
100
AcDbLine
 10
21.96083381776741
 20
3.823616509725755
 30
0.0
 11
21.96083381776742
 21
3.868659116020385
 31
0.0
  0
ARC
  5
1263
330
121B
100
AcDbEntity
  8
SCREW
100
AcDbCircle
 10
21.80723499257551
 20
3.745722241497574
 30
0.0
 40
0.0122271916842302
100
AcDbArc
 50
110.0434587331205
 51
296.0631427173527
  0
ARC
  5
1264
330
121B
100
AcDbEntity
  8
SCREW
100
AcDbCircle
 10
21.96159312728031
 20
3.81141291740437
 30
0.0
 40
0.0122271916842302
100
AcDbArc
 50
290.0434587308119
 51
116.063142715918
  0
LINE
  5
1265
330
121B
100
AcDbEntity
  8
SCREW
100
AcDbLine
 10
21.82045207146392
 20
3.738077016574235
 30
0.0
 11
21.82045207146392
 21
3.693777734898879
 31
0.0
  0
LINE
  5
1266
330
121B
100
AcDbEntity
  8
SCREW
100
AcDbLine
 10
21.96083381776741
 20
3.752777110703473
 30
0.0
 11
21.96083381776742
 21
3.797819716998103
 31
0.0
  0
ARC
  5
1267
330
121B
100
AcDbEntity
  8
SCREW
100
AcDbCircle
 10
21.80723499257551
 20
3.674882842475292
 30
0.0
 40
0.0122271916842302
100
AcDbArc
 50
110.0434587331205
 51
296.0631427173527
  0
ARC
  5
1268
330
121B
100
AcDbEntity
  8
SCREW
100
AcDbCircle
 10
21.96159312728031
 20
3.740573518382089
 30
0.0
 40
0.0122271916842302
100
AcDbArc
 50
290.0434587308119
 51
116.063142715918
  0
LINE
  5
1269
330
121B
100
AcDbEntity
  8
SCREW
100
AcDbLine
 10
21.82045207146392
 20
3.667237617551953
 30
0.0
 11
21.82045207146392
 21
3.622938335876598
 31
0.0
  0
LINE
  5
126A
330
121B
100
AcDbEntity
  8
SCREW
100
AcDbLine
 10
21.96083381776741
 20
3.68193771168119
 30
0.0
 11
21.96083381776742
 21
3.72698031797582
 31
0.0
  0
ARC
  5
126B
330
121B
100
AcDbEntity
  8
SCREW
100
AcDbCircle
 10
21.80723499257551
 20
3.604043443453011
 30
0.0
 40
0.0122271916842302
100
AcDbArc
 50
110.0434587331205
 51
296.0631427173527
  0
ARC
  5
126C
330
121B
100
AcDbEntity
  8
SCREW
100
AcDbCircle
 10
21.96159312728031
 20
3.669734119359807
 30
0.0
 40
0.0122271916842302
100
AcDbArc
 50
290.0434587308119
 51
116.063142715918
  0
LINE
  5
126D
330
121B
100
AcDbEntity
  8
SCREW
100
AcDbLine
 10
21.82045207146392
 20
3.596398218529672
 30
0.0
 11
21.82045207146392
 21
3.552098936854315
 31
0.0
  0
LINE
  5
126E
330
121B
100
AcDbEntity
  8
SCREW
100
AcDbLine
 10
21.96083381776741
 20
3.611098312658908
 30
0.0
 11
21.96083381776742
 21
3.656140918953538
 31
0.0
  0
LINE
  5
126F
330
121B
100
AcDbEntity
  8
SCREW
100
AcDbLine
 10
21.8204520714639
 20
3.384772434771414
 30
0.0
 11
21.82045207146391
 21
3.381738717799535
 31
0.0
  0
LINE
  5
1270
330
121B
100
AcDbEntity
  8
SCREW
100
AcDbLine
 10
21.96083381776738
 20
3.406100200990893
 30
0.0
 11
21.96083381776739
 21
3.444515135195267
 31
0.0
  0
ARC
  5
1271
330
121B
100
AcDbEntity
  8
SCREW
100
AcDbCircle
 10
21.80723499257549
 20
3.392417659694757
 30
0.0
 40
0.0122271916842302
100
AcDbArc
 50
110.0434587331204
 51
296.0631427173527
  0
ARC
  5
1272
330
121B
100
AcDbEntity
  8
SCREW
100
AcDbCircle
 10
21.96159312728029
 20
3.458108335601554
 30
0.0
 40
0.0122271916842302
100
AcDbArc
 50
290.0434587308119
 51
116.063142715918
  0
LINE
  5
1273
330
121B
100
AcDbEntity
  8
SCREW
100
AcDbLine
 10
21.72426247069396
 20
5.104196230643468
 30
0.0
 11
22.04380633964891
 21
5.104196230643468
 31
0.0
  0
LINE
  5
1274
330
121B
100
AcDbEntity
  8
SCREW
100
AcDbLine
 10
21.72426247069396
 20
5.134070514776121
 30
0.0
 11
22.04380633964892
 21
5.134070514776121
 31
0.0
  0
LINE
  5
1275
330
121B
100
AcDbEntity
  8
SCREW
100
AcDbLine
 10
21.72426247069396
 20
5.134070514776121
 30
0.0
 11
21.72426247069396
 21
5.104196230643472
 31
0.0
  0
ARC
  5
1276
330
121B
100
AcDbEntity
  8
SCREW
100
AcDbCircle
 10
21.88403440517143
 20
4.995677929710909
 30
0.0
 40
0.2113754447605181
100
AcDbArc
 50
40.89872848759142
 51
139.1012715124086
  0
LINE
  5
1277
330
121B
100
AcDbEntity
  8
SCREW
100
AcDbLine
 10
22.04380633964891
 20
5.134070514776121
 30
0.0
 11
22.04380633964892
 21
5.104196230643472
 31
0.0
  0
LINE
  5
1278
330
121B
100
AcDbEntity
  8
SCREW
100
AcDbLine
 10
21.81260714856896
 20
3.522220231046251
 30
0.0
 11
21.96578378692021
 21
3.587408093841244
 31
0.0
  0
LINE
  5
1279
330
121B
100
AcDbEntity
  8
SCREW
100
AcDbLine
 10
21.80186283658207
 20
3.544187857815204
 30
0.0
 11
21.95622097128703
 21
3.609878533722078
 31
0.0
  0
ARC
  5
127A
330
121B
100
AcDbEntity
  8
SCREW
100
AcDbCircle
 10
21.80723499257551
 20
3.533204044430728
 30
0.0
 40
0.0122271916842302
100
AcDbArc
 50
110.0434587331204
 51
296.0631427173527
  0
ARC
  5
127B
330
121B
100
AcDbEntity
  8
SCREW
100
AcDbCircle
 10
21.96159312728031
 20
3.598894720337525
 30
0.0
 40
0.0122271916842302
100
AcDbArc
 50
290.0434587308119
 51
116.063142715918
  0
LINE
  5
127C
330
121B
100
AcDbEntity
  8
SCREW
100
AcDbLine
 10
21.82045207146392
 20
3.52555881950739
 30
0.0
 11
21.82045207146392
 21
3.481259537832033
 31
0.0
  0
LINE
  5
127D
330
121B
100
AcDbEntity
  8
SCREW
100
AcDbLine
 10
21.96083381776742
 20
3.540258913636626
 30
0.0
 11
21.96083381776742
 21
3.585301519931256
 31
0.0
  0
LINE
  5
127E
330
121B
100
AcDbEntity
  8
SCREW
100
AcDbLine
 10
21.81260714856897
 20
3.451380832023969
 30
0.0
 11
21.96578378692022
 21
3.516568694818961
 31
0.0
  0
LINE
  5
127F
330
121B
100
AcDbEntity
  8
SCREW
100
AcDbLine
 10
21.80186283658207
 20
3.473348458792922
 30
0.0
 11
21.95622097128703
 21
3.539039134699796
 31
0.0
  0
ARC
  5
1280
330
121B
100
AcDbEntity
  8
SCREW
100
AcDbCircle
 10
21.80723499257552
 20
3.462364645408446
 30
0.0
 40
0.0122271916842302
100
AcDbArc
 50
110.0434587331204
 51
296.0631427173527
  0
ARC
  5
1281
330
121B
100
AcDbEntity
  8
SCREW
100
AcDbCircle
 10
21.96159312728032
 20
3.528055321315243
 30
0.0
 40
0.0122271916842302
100
AcDbArc
 50
290.0434587308119
 51
116.063142715918
  0
LINE
  5
1282
330
121B
100
AcDbEntity
  8
SCREW
100
AcDbLine
 10
21.82045207146393
 20
3.454719420485107
 30
0.0
 11
21.82045207146392
 21
3.410420138809751
 31
0.0
  0
LINE
  5
1283
330
121B
100
AcDbEntity
  8
SCREW
100
AcDbLine
 10
21.96083381776742
 20
3.469419514614344
 30
0.0
 11
21.96083381776743
 21
3.514462120908974
 31
0.0
  0
LINE
  5
1284
330
121B
100
AcDbEntity
  8
SCREW
100
AcDbLine
 10
21.81260714856896
 20
3.876417226157669
 30
0.0
 11
21.96578378692021
 21
3.941605088952662
 31
0.0
  0
LINE
  5
1285
330
121B
100
AcDbEntity
  8
SCREW
100
AcDbLine
 10
21.80186283658207
 20
3.898384852926622
 30
0.0
 11
21.95622097128703
 21
3.964075528833496
 31
0.0
  0
LINE
  5
1286
330
121B
100
AcDbEntity
  8
SCREW
100
AcDbLine
 10
21.82045207146392
 20
3.950595213641089
 30
0.0
 11
21.82045207146392
 21
3.906295931965733
 31
0.0
  0
LINE
  5
1287
330
121B
100
AcDbEntity
  8
SCREW
100
AcDbLine
 10
21.96083381776741
 20
3.965295307770326
 30
0.0
 11
21.96083381776742
 21
4.010337914064955
 31
0.0
  0
ARC
  5
1288
330
121B
100
AcDbEntity
  8
SCREW
100
AcDbCircle
 10
21.80723499257551
 20
3.887401039542146
 30
0.0
 40
0.0122271916842302
100
AcDbArc
 50
110.0434587331205
 51
296.0631427173527
  0
ARC
  5
1289
330
121B
100
AcDbEntity
  8
SCREW
100
AcDbCircle
 10
21.96159312728031
 20
3.953091715448942
 30
0.0
 40
0.0122271916842302
100
AcDbArc
 50
290.0434587308119
 51
116.063142715918
  0
LINE
  5
128A
330
121B
100
AcDbEntity
  8
SCREW
100
AcDbLine
 10
21.81260714856896
 20
3.947256625179958
 30
0.0
 11
21.96578378692021
 21
4.012444487974951
 31
0.0
  0
LINE
  5
128B
330
121B
100
AcDbEntity
  8
SCREW
100
AcDbLine
 10
21.80186283658207
 20
3.969224251948912
 30
0.0
 11
21.95622097128703
 21
4.034914927855785
 31
0.0
  0
LINE
  5
128C
330
121B
100
AcDbEntity
  8
SCREW
100
AcDbLine
 10
21.82045207146392
 20
4.021434612663378
 30
0.0
 11
21.82045207146392
 21
3.977135330988022
 31
0.0
  0
LINE
  5
128D
330
121B
100
AcDbEntity
  8
SCREW
100
AcDbLine
 10
21.96083381776741
 20
4.036134706792615
 30
0.0
 11
21.96083381776742
 21
4.081177313087246
 31
0.0
  0
ARC
  5
128E
330
121B
100
AcDbEntity
  8
SCREW
100
AcDbCircle
 10
21.80723499257551
 20
3.958240438564435
 30
0.0
 40
0.0122271916842302
100
AcDbArc
 50
110.0434587331205
 51
296.0631427173527
  0
ARC
  5
128F
330
121B
100
AcDbEntity
  8
SCREW
100
AcDbCircle
 10
21.96159312728031
 20
4.023931114471232
 30
0.0
 40
0.0122271916842302
100
AcDbArc
 50
290.0434587308119
 51
116.063142715918
  0
LINE
  5
1290
330
121B
100
AcDbEntity
  8
SCREW
100
AcDbLine
 10
21.81260714856896
 20
4.018096024202248
 30
0.0
 11
21.96578378692021
 21
4.08328388699724
 31
0.0
  0
LINE
  5
1291
330
121B
100
AcDbEntity
  8
SCREW
100
AcDbLine
 10
21.80186283658207
 20
4.040063650971201
 30
0.0
 11
21.95622097128703
 21
4.105754326878074
 31
0.0
  0
LINE
  5
1292
330
121B
100
AcDbEntity
  8
SCREW
100
AcDbLine
 10
21.82045207146392
 20
4.092274011685668
 30
0.0
 11
21.82045207146392
 21
4.047974730010311
 31
0.0
  0
LINE
  5
1293
330
121B
100
AcDbEntity
  8
SCREW
100
AcDbLine
 10
21.96083381776741
 20
4.106974105814905
 30
0.0
 11
21.96083381776742
 21
4.152016712109534
 31
0.0
  0
ARC
  5
1294
330
121B
100
AcDbEntity
  8
SCREW
100
AcDbCircle
 10
21.80723499257551
 20
4.029079837586724
 30
0.0
 40
0.0122271916842302
100
AcDbArc
 50
110.0434587331205
 51
296.0631427173527
  0
ARC
  5
1295
330
121B
100
AcDbEntity
  8
SCREW
100
AcDbCircle
 10
21.96159312728031
 20
4.094770513493521
 30
0.0
 40
0.0122271916842302
100
AcDbArc
 50
290.0434587308119
 51
116.063142715918
  0
LINE
  5
1296
330
121B
100
AcDbEntity
  8
SCREW
100
AcDbLine
 10
21.81260714856896
 20
4.088935423224537
 30
0.0
 11
21.96578378692021
 21
4.15412328601953
 31
0.0
  0
LINE
  5
1297
330
121B
100
AcDbEntity
  8
SCREW
100
AcDbLine
 10
21.80186283658207
 20
4.11090304999349
 30
0.0
 11
21.95622097128703
 21
4.176593725900364
 31
0.0
  0
LINE
  5
1298
330
121B
100
AcDbEntity
  8
SCREW
100
AcDbLine
 10
21.82045207146392
 20
4.163113410707957
 30
0.0
 11
21.82045207146392
 21
4.118814129032601
 31
0.0
  0
LINE
  5
1299
330
121B
100
AcDbEntity
  8
SCREW
100
AcDbLine
 10
21.96083381776741
 20
4.177813504837193
 30
0.0
 11
21.96083381776742
 21
4.222856111131824
 31
0.0
  0
ARC
  5
129A
330
121B
100
AcDbEntity
  8
SCREW
100
AcDbCircle
 10
21.80723499257551
 20
4.099919236609014
 30
0.0
 40
0.0122271916842302
100
AcDbArc
 50
110.0434587331205
 51
296.0631427173527
  0
ARC
  5
129B
330
121B
100
AcDbEntity
  8
SCREW
100
AcDbCircle
 10
21.96159312728031
 20
4.165609912515811
 30
0.0
 40
0.0122271916842302
100
AcDbArc
 50
290.0434587308119
 51
116.063142715918
  0
LINE
  5
129C
330
121B
100
AcDbEntity
  8
SCREW
100
AcDbLine
 10
21.81260714856896
 20
4.159774822246826
 30
0.0
 11
21.96578378692021
 21
4.224962685041819
 31
0.0
  0
LINE
  5
129D
330
121B
100
AcDbEntity
  8
SCREW
100
AcDbLine
 10
21.80186283658207
 20
4.181742449015779
 30
0.0
 11
21.95622097128703
 21
4.247433124922653
 31
0.0
  0
LINE
  5
129E
330
121B
100
AcDbEntity
  8
SCREW
100
AcDbLine
 10
21.82045207146392
 20
4.233952809730246
 30
0.0
 11
21.82045207146392
 21
4.18965352805489
 31
0.0
  0
LINE
  5
129F
330
121B
100
AcDbEntity
  8
SCREW
100
AcDbLine
 10
21.96083381776741
 20
4.248652903859484
 30
0.0
 11
21.96083381776742
 21
4.293695510154113
 31
0.0
  0
ARC
  5
12A0
330
121B
100
AcDbEntity
  8
SCREW
100
AcDbCircle
 10
21.80723499257551
 20
4.170758635631303
 30
0.0
 40
0.0122271916842302
100
AcDbArc
 50
110.0434587331205
 51
296.0631427173527
  0
ARC
  5
12A1
330
121B
100
AcDbEntity
  8
SCREW
100
AcDbCircle
 10
21.96159312728031
 20
4.236449311538099
 30
0.0
 40
0.0122271916842302
100
AcDbArc
 50
290.0434587308119
 51
116.063142715918
  0
LINE
  5
12A2
330
121B
100
AcDbEntity
  8
SCREW
100
AcDbLine
 10
21.81260714856896
 20
4.230614221269116
 30
0.0
 11
21.96578378692021
 21
4.295802084064108
 31
0.0
  0
LINE
  5
12A3
330
121B
100
AcDbEntity
  8
SCREW
100
AcDbLine
 10
21.80186283658207
 20
4.252581848038069
 30
0.0
 11
21.95622097128703
 21
4.318272523944942
 31
0.0
  0
LINE
  5
12A4
330
121B
100
AcDbEntity
  8
SCREW
100
AcDbLine
 10
21.82045207146392
 20
4.304792208752536
 30
0.0
 11
21.82045207146392
 21
4.260492927077179
 31
0.0
  0
LINE
  5
12A5
330
121B
100
AcDbEntity
  8
SCREW
100
AcDbLine
 10
21.96083381776741
 20
4.319492302881772
 30
0.0
 11
21.96083381776742
 21
4.364534909176403
 31
0.0
  0
ARC
  5
12A6
330
121B
100
AcDbEntity
  8
SCREW
100
AcDbCircle
 10
21.80723499257551
 20
4.241598034653592
 30
0.0
 40
0.0122271916842302
100
AcDbArc
 50
110.0434587331205
 51
296.0631427173527
  0
ARC
  5
12A7
330
121B
100
AcDbEntity
  8
SCREW
100
AcDbCircle
 10
21.96159312728031
 20
4.307288710560389
 30
0.0
 40
0.0122271916842302
100
AcDbArc
 50
290.0434587308119
 51
116.063142715918
  0
LINE
  5
12A8
330
121B
100
AcDbEntity
  8
SCREW
100
AcDbLine
 10
21.81260714856896
 20
4.301453620291405
 30
0.0
 11
21.96578378692021
 21
4.366641483086397
 31
0.0
  0
LINE
  5
12A9
330
121B
100
AcDbEntity
  8
SCREW
100
AcDbLine
 10
21.80186283658207
 20
4.323421247060358
 30
0.0
 11
21.95622097128703
 21
4.389111922967232
 31
0.0
  0
LINE
  5
12AA
330
121B
100
AcDbEntity
  8
SCREW
100
AcDbLine
 10
21.82045207146392
 20
4.375631607774825
 30
0.0
 11
21.82045207146392
 21
4.331332326099469
 31
0.0
  0
LINE
  5
12AB
330
121B
100
AcDbEntity
  8
SCREW
100
AcDbLine
 10
21.96083381776741
 20
4.390331701904062
 30
0.0
 11
21.96083381776742
 21
4.435374308198691
 31
0.0
  0
ARC
  5
12AC
330
121B
100
AcDbEntity
  8
SCREW
100
AcDbCircle
 10
21.80723499257551
 20
4.312437433675881
 30
0.0
 40
0.0122271916842302
100
AcDbArc
 50
110.0434587331205
 51
296.0631427173527
  0
ARC
  5
12AD
330
121B
100
AcDbEntity
  8
SCREW
100
AcDbCircle
 10
21.96159312728031
 20
4.378128109582678
 30
0.0
 40
0.0122271916842302
100
AcDbArc
 50
290.0434587308119
 51
116.063142715918
  0
LINE
  5
12AE
330
121B
100
AcDbEntity
  8
SCREW
100
AcDbLine
 10
21.81260714856896
 20
4.372293019313693
 30
0.0
 11
21.96578378692021
 21
4.437480882108686
 31
0.0
  0
LINE
  5
12AF
330
121B
100
AcDbEntity
  8
SCREW
100
AcDbLine
 10
21.80186283658207
 20
4.394260646082648
 30
0.0
 11
21.95622097128703
 21
4.45995132198952
 31
0.0
  0
LINE
  5
12B0
330
121B
100
AcDbEntity
  8
SCREW
100
AcDbLine
 10
21.82045207146392
 20
4.446471006797113
 30
0.0
 11
21.82045207146392
 21
4.402171725121758
 31
0.0
  0
LINE
  5
12B1
330
121B
100
AcDbEntity
  8
SCREW
100
AcDbLine
 10
21.96083381776741
 20
4.461171100926351
 30
0.0
 11
21.96083381776742
 21
4.506213707220982
 31
0.0
  0
ARC
  5
12B2
330
121B
100
AcDbEntity
  8
SCREW
100
AcDbCircle
 10
21.80723499257551
 20
4.383276832698171
 30
0.0
 40
0.0122271916842302
100
AcDbArc
 50
110.0434587331205
 51
296.0631427173527
  0
ARC
  5
12B3
330
121B
100
AcDbEntity
  8
SCREW
100
AcDbCircle
 10
21.96159312728031
 20
4.448967508604968
 30
0.0
 40
0.0122271916842302
100
AcDbArc
 50
290.0434587308119
 51
116.063142715918
  0
LINE
  5
12B4
330
121B
100
AcDbEntity
  8
SCREW
100
AcDbLine
 10
21.81260714856896
 20
4.443132418335984
 30
0.0
 11
21.96578378692021
 21
4.508320281130977
 31
0.0
  0
LINE
  5
12B5
330
121B
100
AcDbEntity
  8
SCREW
100
AcDbLine
 10
21.80186283658207
 20
4.465100045104938
 30
0.0
 11
21.95622097128703
 21
4.530790721011811
 31
0.0
  0
LINE
  5
12B6
330
121B
100
AcDbEntity
  8
SCREW
100
AcDbLine
 10
21.82045207146392
 20
4.517310405819404
 30
0.0
 11
21.82045207146392
 21
4.473011124144049
 31
0.0
  0
LINE
  5
12B7
330
121B
100
AcDbEntity
  8
SCREW
100
AcDbLine
 10
21.96083381776741
 20
4.532010499948642
 30
0.0
 11
21.96083381776742
 21
4.577053106243271
 31
0.0
  0
ARC
  5
12B8
330
121B
100
AcDbEntity
  8
SCREW
100
AcDbCircle
 10
21.80723499257551
 20
4.45411623172046
 30
0.0
 40
0.0122271916842302
100
AcDbArc
 50
110.0434587331205
 51
296.0631427173527
  0
ARC
  5
12B9
330
121B
100
AcDbEntity
  8
SCREW
100
AcDbCircle
 10
21.96159312728025
 20
4.519806907627225
 30
0.0
 40
0.0122271916842302
100
AcDbArc
 50
290.0434587308119
 51
116.063142715918
  0
ENDBLK
  5
12BA
330
121B
100
AcDbEntity
  8
0
100
AcDbBlockEnd
  0
ENDSEC
  0
SECTION
  2
ENTITIES
  0
HATCH
  5
1574
330
1F
100
AcDbEntity
  8
ADHESIVE
100
AcDbHatch
 10
0.0
 20
0.0
 30
0.0
210
0.0
220
0.0
230
1.0
  2
HONEY
 70
     0
 71
     0
 91
        1
 92
        1
 93
        4
 72
     1
 10
28.1007142199726
 20
24.96484263710935
 11
28.05386246607552
 21
24.96484263710935
 72
     1
 10
28.05386246607552
 20
24.96484263710935
 11
28.05386246607552
 21
23.83984254131252
 72
     1
 10
28.05386246607552
 20
23.83984254131252
 11
28.1007142199726
 21
23.83984254131252
 72
     1
 10
28.1007142199726
 20
23.83984254131252
 11
28.1007142199726
 21
24.96484263710935
 97
        0
 75
     0
 76
     1
 52
0.0
 41
0.2
 77
     0
 78
     3
 53
0.0
 43
29.72429097851766
 44
15.64207432219852
 45
0.0375
 46
0.021650635094611
 79
     2
 49
0.025
 49
-0.05
 53
120.0
 43
29.72429097851766
 44
15.64207432219852
 45
-0.0375
 46
0.021650635094611
 79
     2
 49
0.025
 49
-0.0499999999999999
 53
60.0
 43
29.72429097851766
 44
15.64207432219852
 45
0.0
 46
0.043301270189222
 79
     2
 49
-0.05
 49
0.025
 98
        1
 10
28.06857206517261
 20
23.81375231943037
1001
GradientColor1ACI
1070
     5
1001
GradientColor2ACI
1070
     2
1001
ACAD
1010
0.0
1020
0.0
1030
0.0
  0
HATCH
  5
1575
330
1F
100
AcDbEntity
  8
ADHESIVE
100
AcDbHatch
 10
0.0
 20
0.0
 30
0.0
210
0.0
220
0.0
230
1.0
  2
HONEY
 70
     0
 71
     0
 91
        1
 92
        1
 93
        4
 72
     1
 10
28.1007142199726
 20
28.08880047972947
 11
28.05386246607552
 21
28.08880047972947
 72
     1
 10
28.05386246607552
 20
28.08880047972947
 11
28.05386246607552
 21
25.57474358549477
 72
     1
 10
28.05386246607552
 20
25.57474358549477
 11
28.1007142199726
 21
25.57474358549477
 72
     1
 10
28.1007142199726
 20
25.57474358549477
 11
28.1007142199726
 21
28.08880047972947
 97
        0
 75
     0
 76
     1
 52
0.0
 41
0.2
 77
     0
 78
     3
 53
0.0
 43
29.72429097851766
 44
18.25197527058394
 45
0.0375
 46
0.021650635094611
 79
     2
 49
0.025
 49
-0.05
 53
120.0
 43
29.72429097851766
 44
18.25197527058394
 45
-0.0375
 46
0.021650635094611
 79
     2
 49
0.025
 49
-0.0499999999999999
 53
60.0
 43
29.72429097851766
 44
18.25197527058394
 45
0.0
 46
0.043301270189222
 79
     2
 49
-0.05
 49
0.025
 98
        1
 10
28.06857206517261
 20
26.4236532678158
1001
GradientColor1ACI
1070
     5
1001
GradientColor2ACI
1070
     2
1001
ACAD
1010
0.0
1020
0.0
1030
0.0
  0
LINE
  5
1576
330
1F
100
AcDbEntity
  8
ADHESIVE
100
AcDbLine
 10
28.05386246607552
 20
24.96484263710935
 30
0.0
 11
28.1007142199726
 21
24.96484263710935
 31
0.0
  0
LINE
  5
1577
330
1F
100
AcDbEntity
  8
ADHESIVE
100
AcDbLine
 10
28.05386246607552
 20
23.83984254131252
 30
0.0
 11
28.1007142199726
 21
23.83984254131252
 31
0.0
  0
LINE
  5
157A
330
1F
100
AcDbEntity
  8
ADHESIVE
100
AcDbLine
 10
28.05386246607552
 20
25.57474358549477
 30
0.0
 11
28.1007142199726
 21
25.57474358549477
 31
0.0
  0
LWPOLYLINE
  5
157B
330
1F
100
AcDbEntity
  8
WRB
100
AcDbPolyline
 90
        4
 70
     0
 43
0.03125
 10
28.66360254764817
 20
28.08880047972947
 10
28.66360254764817
 20
25.77296007569695
 10
28.53361402401836
 20
25.35349794206187
 10
28.53361402401836
 20
22.83984263710935
  0
LWPOLYLINE
  5
157D
330
1F
100
AcDbEntity
  8
A-DE-35
  6
Continuous
100
AcDbPolyline
 90
        6
 70
     0
 43
0.0
 10
27.53141689876533
 20
28.08880047972947
 10
29.13690550931069
 20
28.08880047972947
 10
29.16815550931069
 20
28.00294181037151
 10
29.23065550931069
 20
28.17465914908742
 10
29.26190550931069
 20
28.08880047972947
 10
30.82318557164413
 20
28.08901247786275
  0
HATCH
  5
157E
330
1F
100
AcDbEntity
  8
HATCH
 62
     9
100
AcDbHatch
 10
0.0
 20
0.0
 30
0.0
210
0.0
220
0.0
230
1.0
  2
AR-SAND
 70
     0
 71
     0
 91
        1
 92
        1
 93
        6
 72
     1
 10
28.05386246607552
 20
25.32650716077942
 11
27.76531547221269
 21
25.42026176237425
 72
     1
 10
27.76531547221269
 20
25.42026176237425
 11
27.77980067648941
 21
25.46484263710935
 72
     1
 10
27.77980067648941
 20
25.46484263710935
 11
27.55386246607552
 21
25.46484263710935
 72
     2
 10
27.41323746607552
 20
25.27734263710935
 40
0.2343749999999981
 50
306.8698976458434
 51
413.1301023541566
 73
     0
 72
     1
 10
27.55386246607552
 20
25.08984263710935
 11
28.05386246607552
 21
25.08984263710935
 72
     1
 10
28.05386246607552
 20
25.08984263710935
 11
28.05386246607552
 21
25.32650716077942
 97
        0
 75
     0
 76
     1
 52
0.0
 41
0.05
 77
     0
 78
     4
 53
37.5
 43
23.24116524724478
 44
18.34918676354727
 45
-0.0031496679054804
 46
0.0963411884506579
 79
     6
 49
0.0
 49
-0.076
 49
0.0
 49
-0.085
 49
0.0
 49
-0.08125
 53
7.499999999999999
 43
23.24116524724478
 44
18.34918676354727
 45
0.0884888352633864
 46
0.141107303261487
 79
     6
 49
0.0
 49
-0.041
 49
0.0
 49
-0.0685
 49
0.0
 49
-0.02625
 53
327.5
 43
23.17966524724477
 44
18.34918676354727
 45
0.1557070930875748
 46
0.0002829526768482
 79
     6
 49
0.0
 49
-0.025
 49
0.0
 49
-0.09
 49
0.0
 49
-0.1175
 53
317.5
 43
23.17966524724477
 44
18.34918676354727
 45
0.1503063302286147
 46
0.0438837782467125
 79
     6
 49
0.0
 49
-0.0125
 49
0.0
 49
-0.059
 49
0.0
 49
-0.0675
 98
        1
 10
27.89668149023412
 20
25.37800211730241
1001
ACAD
1010
0.0
1020
0.0
1030
0.0
  0
HATCH
  5
157F
330
1F
100
AcDbEntity
  8
A-PA
100
AcDbHatch
 10
0.0
 20
0.0
 30
0.0
210
0.0
220
0.0
230
1.0
  2
AR-SAND
 70
     0
 71
     0
 91
        1
 92
        7
 72
     0
 73
     1
 93
        3
 10
28.05386246607552
 20
25.46484263710935
 10
27.77980067648942
 20
25.46484263710935
 10
28.05386246607552
 20
25.37579456368799
 97
        0
 75
     0
 76
     1
 52
0.0
 41
0.05
 77
     0
 78
     4
 53
37.5
 43
23.24116524724478
 44
18.19865757686566
 45
-0.0031496679054804
 46
0.0963411884506579
 79
     6
 49
0.0
 49
-0.076
 49
0.0
 49
-0.085
 49
0.0
 49
-0.08125
 53
7.499999999999999
 43
23.24116524724478
 44
18.19865757686566
 45
0.0884888352633864
 46
0.141107303261487
 79
     6
 49
0.0
 49
-0.041
 49
0.0
 49
-0.0685
 49
0.0
 49
-0.02625
 53
327.5
 43
23.17966524724477
 44
18.19865757686566
 45
0.1557070930875748
 46
0.0002829526768482
 79
     6
 49
0.0
 49
-0.025
 49
0.0
 49
-0.09
 49
0.0
 49
-0.1175
 53
317.5
 43
23.17966524724477
 44
18.19865757686566
 45
0.1503063302286147
 46
0.0438837782467125
 79
     6
 49
0.0
 49
-0.0125
 49
0.0
 49
-0.059
 49
0.0
 49
-0.0675
 47
0.0016312325050713
 98
        1
 10
27.9984289058775
 20
25.40538571942164
1001
ACAD
1010
0.0
1020
0.0
1030
0.0
  0
HATCH
  5
1581
330
1F
100
AcDbEntity
  8
HATCH
 62
     9
100
AcDbHatch
 10
0.0
 20
0.0
 30
0.0
210
0.0
220
0.0
230
1.0
  2
ANSI31
 70
     0
 71
     0
 91
        1
 92
        1
 93
        4
 72
     1
 10
28.05386246607552
 20
28.08880047972947
 11
27.55386246607552
 21
28.08880047972947
 72
     1
 10
27.55386246607552
 20
28.08880047972947
 11
27.55386246607552
 21
25.46484263710935
 72
     1
 10
27.55386246607552
 20
25.46484263710935
 11
28.05386246607552
 21
25.46484263710935
 72
     1
 10
28.05386246607552
 20
25.46484263710935
 11
28.05386246607552
 21
28.08880047972947
 97
        0
 75
     0
 76
     1
 52
0.0
 41
1.5
 77
     0
 78
     1
 53
45.0
 43
29.72429097851766
 44
15.44328738394569
 45
-0.1325825214724776
 46
0.1325825214724777
 79
     0
 98
        1
 10
27.9009508897694
 20
26.54107007300301
1001
GradientColor1ACI
1070
     5
1001
GradientColor2ACI
1070
     2
1001
ACAD
1010
0.0
1020
0.0
1030
0.0
  0
LINE
  5
1583
330
1F
100
AcDbEntity
  8
BRICK
100
AcDbLine
 10
28.05386246607552
 20
25.46484263710935
 30
0.0
 11
27.55386246607552
 21
25.46484263710935
 31
0.0
  0
LINE
  5
1584
330
1F
100
AcDbEntity
  8
BRICK
100
AcDbLine
 10
27.55386246607552
 20
25.46484263710935
 30
0.0
 11
27.55386246607552
 21
28.08880047972947
 31
0.0
  0
HATCH
  5
1585
330
1F
100
AcDbEntity
  8
HATCH
 62
     9
100
AcDbHatch
 10
0.0
 20
0.0
 30
0.0
210
0.0
220
0.0
230
1.0
  2
ANSI31
 70
     0
 71
     0
 91
        1
 92
        1
 93
        4
 72
     1
 10
28.05386246607552
 20
25.08984263710935
 11
27.55386246607552
 21
25.08984263710935
 72
     1
 10
27.55386246607552
 20
25.08984263710935
 11
27.55386246607552
 21
23.83984263710935
 72
     1
 10
27.55386246607552
 20
23.83984263710935
 11
28.05386246607552
 21
23.83984263710935
 72
     1
 10
28.05386246607552
 20
23.83984263710935
 11
28.05386246607552
 21
25.08984263710935
 97
        0
 75
     0
 76
     1
 52
0.0
 41
1.5
 77
     0
 78
     1
 53
45.0
 43
23.34644620104556
 44
18.0495682027023
 45
-0.1325825214724776
 46
0.1325825214724777
 79
     0
 98
        1
 10
27.73813504309591
 20
24.27315329214986
1001
ACAD
1010
0.0
1020
0.0
1030
0.0
  0
LINE
  5
1586
330
1F
100
AcDbEntity
  8
BRICK
100
AcDbLine
 10
28.05386246607552
 20
22.83984263710935
 30
0.0
 11
28.05386246607552
 21
25.08984263710935
 31
0.0
  0
LINE
  5
1587
330
1F
100
AcDbEntity
  8
BRICK
100
AcDbLine
 10
28.05386246607552
 20
25.08984263710935
 30
0.0
 11
27.55386246607552
 21
25.08984263710935
 31
0.0
  0
LINE
  5
1588
330
1F
100
AcDbEntity
  8
BRICK
100
AcDbLine
 10
27.55386246607552
 20
25.08984263710935
 30
0.0
 11
27.55386246607552
 21
22.83984263710935
 31
0.0
  0
LINE
  5
1589
330
1F
100
AcDbEntity
  8
BRICK
100
AcDbLine
 10
27.55386246607552
 20
22.83984263710935
 30
0.0
 11
28.05386246607552
 21
22.83984263710935
 31
0.0
  0
LINE
  5
158D
330
1F
100
AcDbEntity
  8
A-DE-10
100
AcDbLine
 10
28.1007142199726
 20
25.36057150604376
 30
0.0
 11
27.77980067648941
 21
25.46484263710935
 31
0.0
  0
LINE
  5
158E
330
1F
100
AcDbEntity
  8
A-DE-10
100
AcDbLine
 10
27.77980067648941
 20
25.46484263710935
 30
0.0
 11
27.76531547221269
 21
25.42026176237425
 31
0.0
  0
LINE
  5
158F
330
1F
100
AcDbEntity
  8
A-DE-10
100
AcDbLine
 10
27.76531547221269
 20
25.42026176237425
 30
0.0
 11
28.1007142199726
 21
25.3112841031352
 31
0.0
  0
LINE
  5
1590
330
1F
100
AcDbEntity
  8
A-DE-10
100
AcDbLine
 10
28.1007142199726
 20
25.3112841031352
 30
0.0
 11
28.1007142199726
 21
23.58984255437018
 31
0.0
  0
LWPOLYLINE
  5
1592
330
1F
100
AcDbEntity
  8
DRAINAGE MAT
100
AcDbPolyline
 90
        2
 70
     0
 43
0.0
 10
28.14759035354198
 20
23.58984257407296
 10
28.1475428313442
 20
28.08880047972947
  0
LWPOLYLINE
  5
1593
330
1F
100
AcDbEntity
  8
DRAINAGE MAT
100
AcDbPolyline
 90
        3
 70
     0
 43
0.0
 10
28.1007142199726
 20
23.58984255437018
 10
28.4944142199726
 20
23.5898427198485
 10
28.49439153377365
 20
28.08880047972947
  0
LINE
  5
1594
330
1F
100
AcDbEntity
  8
WEEP HOLE
100
AcDbLine
 10
27.55386246607552
 20
23.83984263710935
 30
0.0
 11
28.05386246607552
 21
23.83984263710935
 31
0.0
  0
LINE
  5
1596
330
1F
100
AcDbEntity
  8
NOTES
100
AcDbLine
 10
27.32339591762263
 20
17.84251090371047
 30
0.0
 11
27.32339591762263
 21
20.16117356506325
 31
0.0
  0
LEADER
  5
1599
330
1F
100
AcDbEntity
  8
LEADERS
100
AcDbLeader
  3
Standard
 76
     2
 10
27.55386246607552
 20
27.39930600013682
 30
0.0
 10
26.16943574325157
 20
27.39930600013682
 30
0.0
1001
ACAD
1000
DSTYLE
1002
{
1070
   147
1040
0.09375
1070
    77
1070
     0
1070
    41
1040
0.3125
1070
    90
1070
     1
1002
}
  0
LEADER
  5
159B
330
1F
100
AcDbEntity
  8
LEADERS
100
AcDbLeader
  3
Standard
 76
     2
 10
28.1007142199726
 20
26.18498354834227
 30
0.0
 10
25.62862875484899
 20
26.18498354834227
 30
0.0
1001
ACAD
1000
DSTYLE
1002
{
1070
   147
1040
0.09375
1070
    77
1070
     0
1070
    41
1040
0.3125
1070
    90
1070
     1
1002
}
  0
LEADER
  5
159C
330
1F
100
AcDbEntity
  8
LEADERS
100
AcDbLeader
  3
Standard
 76
     2
 10
27.64761230463181
 20
25.27761773112637
 30
0.0
 10
25.18481430016124
 20
25.27761773112637
 30
0.0
1001
ACAD
1000
DSTYLE
1002
{
1070
   147
1040
0.09375
1070
    77
1070
     0
1070
    41
1040
0.3125
1070
    90
1070
     1
1002
}
  0
LEADER
  5
159D
330
1F
100
AcDbEntity
  8
LEADERS
100
AcDbLeader
  3
Standard
 76
     3
 10
27.77255807435105
 20
25.4425521997418
 30
0.0
 10
26.67531288935478
 20
25.70047884443745
 30
0.0
 10
25.6213347063764
 20
25.70047884443745
 30
0.0
1001
ACAD
1000
DSTYLE
1002
{
1070
   147
1040
0.09375
1070
    77
1070
     0
1070
    41
1040
0.3125
1070
    90
1070
     1
1002
}
  0
LEADER
  5
159E
330
1F
100
AcDbEntity
  8
LEADERS
100
AcDbLeader
  3
Standard
 76
     2
 10
28.05386246607552
 20
26.81991006426117
 30
0.0
 10
25.30244669350348
 20
26.81991006426117
 30
0.0
1001
ACAD
1000
DSTYLE
1002
{
1070
   147
1040
0.09375
1070
    77
1070
     0
1070
    41
1040
0.3125
1070
    90
1070
     1
1002
}
  0
LEADER
  5
159F
330
1F
100
AcDbEntity
  8
LEADERS
100
AcDbLeader
  3
Standard
 76
     2
 10
28.51595611655032
 20
23.923722679637
 30
0.0
 10
26.59952097461275
 20
23.923722679637
 30
0.0
1001
ACAD
1000
DSTYLE
1002
{
1070
   147
1040
0.09375
1070
    77
1070
     0
1070
    41
1040
0.3125
1070
    90
1070
     1
1002
}
  0
LINE
  5
15A1
330
1F
100
AcDbEntity
  8
WALL CONSTRUCTION
100
AcDbLine
 10
28.68719272021845
 20
17.46740084468157
 30
0.0
 11
28.68719272021845
 21
28.08880047972947
 31
0.0
  0
ARC
  5
15AC
330
1F
100
AcDbEntity
  8
MORTAR
100
AcDbCircle
 10
27.41323746607553
 20
25.27734263710935
 30
0.0
 40
0.2343749999999981
100
AcDbArc
 50
306.8698976458433
 51
53.13010235415665
  0
LINE
  5
15AD
330
1F
100
AcDbEntity
  8
MORTAR
100
AcDbLine
 10
28.05386246607552
 20
25.46484263710935
 30
0.0
 11
28.05386246607552
 21
25.40267622612462
 31
0.0
  0
LINE
  5
15AE
330
1F
100
AcDbEntity
  8
MORTAR
100
AcDbLine
 10
28.05386246607552
 20
25.08984263710935
 30
0.0
 11
28.05386246607552
 21
25.1160424897296
 31
0.0
  0
TEXT
  5
15AF
330
1F
100
AcDbEntity
  8
NOTES
100
AcDbText
 10
24.20637292333043
 20
24.46090459941841
 30
0.0
 40
0.14
  1
SUBSTRATE
  7
DETAILS
100
AcDbText
  0
TEXT
  5
15B0
330
1F
100
AcDbEntity
  8
NOTES
100
AcDbText
 10
24.20637292333043
 20
26.76935698666206
 30
0.0
 40
0.14
  1
ADHESIVE
  7
DETAILS
100
AcDbText
  0
TEXT
  5
15B1
330
1F
100
AcDbEntity
  8
NOTES
100
AcDbText
 10
24.20637292333043
 20
26.12344836941099
 30
0.0
 40
0.14
  1
ELITE PANEL
  7
DETAILS
100
AcDbText
  0
TEXT
  5
15B2
330
1F
100
AcDbEntity
  8
NOTES
100
AcDbText
 10
24.20637292333043
 20
25.65435825656653
 30
0.0
 40
0.14
  1
SUPPORT TIE
  7
DETAILS
100
AcDbText
  0
TEXT
  5
15B3
330
1F
100
AcDbEntity
  8
NOTES
100
AcDbText
 10
24.20637292333043
 20
25.22820706996734
 30
0.0
 40
0.14
  1
MORTAR
  7
DETAILS
100
AcDbText
  0
TEXT
  5
15B4
330
1F
100
AcDbEntity
  8
NOTES
100
AcDbText
 10
24.20637292333043
 20
24.94413576290442
 30
0.0
 40
0.14
  1
CORROSION RESISTANT
  7
DETAILS
100
AcDbText
  0
TEXT
  5
15B5
330
1F
100
AcDbEntity
  8
NOTES
100
AcDbText
 10
24.20637292333043
 20
24.77385014212723
 30
0.0
 40
0.14
  1
FASTENER
  7
DETAILS
100
AcDbText
  0
TEXT
  5
15B6
330
1F
100
AcDbEntity
  8
NOTES
100
AcDbText
 10
24.20637292333043
 20
27.34646477851107
 30
0.0
 40
0.14
  1
MASONRY VENEER
  7
DETAILS
100
AcDbText
  0
TEXT
  5
15B7
330
1F
100
AcDbEntity
  8
NOTES
100
AcDbText
 10
24.20637292333043
 20
23.27138079200222
 30
0.0
 40
0.14
  1
WEEP HOLES 
  7
DETAILS
100
AcDbText
  0
TEXT
  5
15B8
330
1F
100
AcDbEntity
  8
NOTES
100
AcDbText
 10
24.20637292333043
 20
23.0845096942276
 30
0.0
 40
0.14
  1
MAX 24" ON CENTER
  7
DETAILS
100
AcDbText
  0
TEXT
  5
15BB
330
1F
100
AcDbEntity
  8
NOTES
100
AcDbText
 10
24.20637292333043
 20
22.42056032357948
 30
0.0
 40
0.14
  1
STARTER ANGLE FASTENED
  7
DETAILS
100
AcDbText
  0
TEXT
  5
15BC
330
1F
100
AcDbEntity
  8
NOTES
100
AcDbText
 10
24.20637292333043
 20
22.2209153499932
 30
0.0
 40
0.14
  1
TO SUBSTRATE
  7
DETAILS
100
AcDbText
  0
TEXT
  5
15BD
330
1F
100
AcDbEntity
  8
NOTES
100
AcDbText
 10
27.44913339172701
 20
18.82205549062777
 30
0.0
 40
0.09375
  1
(51 mm)
 50
90.0
  7
DETAILS
100
AcDbText
  0
TEXT
  5
15BE
330
1F
100
AcDbEntity
  8
NOTES
100
AcDbText
 10
27.28323892832832
 20
18.87193437821553
 30
0.0
 40
0.09375
  1
2" MIN.
 50
90.0
  7
DETAILS
100
AcDbText
  0
LINE
  5
15BF
330
1F
100
AcDbEntity
  8
WALL CONSTRUCTION
100
AcDbLine
 10
29.19940550931069
 20
24.49292595813545
 30
0.0
 11
29.1994055093107
 21
21.67291976512052
 31
0.0
  0
TEXT
  5
15C0
330
1F
100
AcDbEntity
  8
NOTES
100
AcDbText
 10
24.20637292333043
 20
21.43656267219693
 30
0.0
 40
0.14
  1
WALL CONSTRUCTION
  7
DETAILS
100
AcDbText
  0
TEXT
  5
15C1
330
1F
100
AcDbEntity
  8
NOTES
100
AcDbText
 10
24.20637292333043
 20
24.06558281570077
 30
0.0
 40
0.14
  1
AIR/WATER RESISTIVE
  7
DETAILS
100
AcDbText
  0
TEXT
  5
15C2
330
1F
100
AcDbEntity
  8
NOTES
100
AcDbText
 10
24.20637292333043
 20
23.85763395906107
 30
0.0
 40
0.14
  1
BARRIER AS REQUIRED
  7
DETAILS
100
AcDbText
  0
LINE
  5
15CA
330
1F
100
AcDbEntity
  8
SCREW
  6
HIDDEN
 48
0.2
100
AcDbLine
 10
28.50440754433277
 20
25.18793210132463
 30
0.0
 11
28.49440604302814
 21
25.21143335267146
 31
0.0
  0
LINE
  5
15CC
330
1F
100
AcDbEntity
  8
SCREW
  6
HIDDEN
 48
0.2
100
AcDbLine
 10
28.57524694335505
 20
25.18793210132463
 30
0.0
 11
28.51005908056006
 21
25.34110873967589
 31
0.0
  0
LINE
  5
15CD
330
1F
100
AcDbEntity
  8
SCREW
  6
HIDDEN
 48
0.2
100
AcDbLine
 10
28.55327931658609
 20
25.17718778933774
 30
0.0
 11
28.49440551812709
 21
25.31552781381869
 31
0.0
  0
LINE
  5
15CE
330
1F
100
AcDbEntity
  8
SCREW
  6
HIDDEN
 48
0.2
100
AcDbLine
 10
28.64658915548913
 20
25.18675060497117
 30
0.0
 11
28.58140129269413
 21
25.33992724332242
 31
0.0
  0
LINE
  5
15CF
330
1F
100
AcDbEntity
  8
SCREW
  6
HIDDEN
 48
0.2
100
AcDbLine
 10
28.62411871560837
 20
25.17718778933774
 30
0.0
 11
28.5584280397015
 21
25.3315459240427
 31
0.0
  0
LINE
  5
15D0
330
1F
100
AcDbEntity
  8
SCREW
  6
HIDDEN
 48
0.2
100
AcDbLine
 10
28.7179313676232
 20
25.1855691086177
 30
0.0
 11
28.65274350482821
 21
25.33874574696895
 31
0.0
  0
LINE
  5
15D1
330
1F
100
AcDbEntity
  8
SCREW
  6
HIDDEN
 48
0.2
100
AcDbLine
 10
28.69546092774245
 20
25.17600629298427
 30
0.0
 11
28.62977025183558
 21
25.33036442768923
 31
0.0
  0
LINE
  5
15D2
330
1F
100
AcDbEntity
  8
SCREW
  6
HIDDEN
 48
0.2
100
AcDbLine
 10
28.78877076664548
 20
25.1855691086177
 30
0.0
 11
28.72358290385049
 21
25.33874574696895
 31
0.0
  0
LINE
  5
15D3
330
1F
100
AcDbEntity
  8
SCREW
  6
HIDDEN
 48
0.2
100
AcDbLine
 10
28.76680313987653
 20
25.17482479663081
 30
0.0
 11
28.70111246396966
 21
25.32918293133576
 31
0.0
  0
LINE
  5
15D4
330
1F
100
AcDbEntity
  8
SCREW
  6
HIDDEN
 48
0.2
100
AcDbLine
 10
28.85961016566776
 20
25.1855691086177
 30
0.0
 11
28.79442230287277
 21
25.33874574696895
 31
0.0
  0
LINE
  5
15D5
330
1F
100
AcDbEntity
  8
SCREW
  6
HIDDEN
 48
0.2
100
AcDbLine
 10
28.83764253889881
 20
25.17482479663081
 30
0.0
 11
28.77195186299194
 21
25.32918293133576
 31
0.0
  0
LINE
  5
15D6
330
1F
100
AcDbEntity
  8
SCREW
  6
HIDDEN
 48
0.2
100
AcDbLine
 10
28.93044956469005
 20
25.1855691086177
 30
0.0
 11
28.86526170189505
 21
25.33874574696895
 31
0.0
  0
LINE
  5
15D7
330
1F
100
AcDbEntity
  8
SCREW
  6
HIDDEN
 48
0.2
100
AcDbLine
 10
28.90848193792109
 20
25.17482479663081
 30
0.0
 11
28.84279126201422
 21
25.32918293133576
 31
0.0
  0
LINE
  5
15D8
330
1F
100
AcDbEntity
  8
SCREW
  6
HIDDEN
 48
0.2
100
AcDbLine
 10
29.00128896371233
 20
25.1855691086177
 30
0.0
 11
28.93610110091734
 21
25.33874574696895
 31
0.0
  0
LINE
  5
15D9
330
1F
100
AcDbEntity
  8
SCREW
  6
HIDDEN
 48
0.2
100
AcDbLine
 10
28.97932133694338
 20
25.17482479663081
 30
0.0
 11
28.9136306610365
 21
25.32918293133576
 31
0.0
  0
LINE
  5
15DA
330
1F
100
AcDbEntity
  8
SCREW
  6
HIDDEN
 48
0.2
100
AcDbLine
 10
29.07212836273461
 20
25.1855691086177
 30
0.0
 11
29.00694049993962
 21
25.33874574696895
 31
0.0
  0
LINE
  5
15DB
330
1F
100
AcDbEntity
  8
SCREW
  6
HIDDEN
 48
0.2
100
AcDbLine
 10
29.05016073596565
 20
25.17482479663081
 30
0.0
 11
28.98447006005878
 21
25.32918293133576
 31
0.0
  0
LINE
  5
15DC
330
1F
100
AcDbEntity
  8
SCREW
  6
HIDDEN
 48
0.2
100
AcDbLine
 10
29.14296776175689
 20
25.1855691086177
 30
0.0
 11
29.0777798989619
 21
25.33874574696895
 31
0.0
  0
LINE
  5
15DD
330
1F
100
AcDbEntity
  8
SCREW
  6
HIDDEN
 48
0.2
100
AcDbLine
 10
29.12100013498794
 20
25.17482479663081
 30
0.0
 11
29.05530945908107
 21
25.32918293133576
 31
0.0
  0
LINE
  5
15DE
330
1F
100
AcDbEntity
  8
SCREW
  6
HIDDEN
 48
0.2
100
AcDbLine
 10
29.21380716077918
 20
25.1855691086177
 30
0.0
 11
29.14861929798418
 21
25.33874574696895
 31
0.0
  0
LINE
  5
15DF
330
1F
100
AcDbEntity
  8
SCREW
  6
HIDDEN
 48
0.2
100
AcDbLine
 10
29.19183953401022
 20
25.17482479663081
 30
0.0
 11
29.12614885810335
 21
25.32918293133576
 31
0.0
  0
LINE
  5
15E0
330
1F
100
AcDbEntity
  8
SCREW
  6
HIDDEN
 48
0.2
100
AcDbLine
 10
29.28464655980146
 20
25.1855691086177
 30
0.0
 11
29.21945869700646
 21
25.33874574696895
 31
0.0
  0
LINE
  5
15E1
330
1F
100
AcDbEntity
  8
SCREW
  6
HIDDEN
 48
0.2
100
AcDbLine
 10
29.26267893303251
 20
25.17482479663081
 30
0.0
 11
29.19698825712563
 21
25.32918293133576
 31
0.0
  0
LINE
  5
15E2
330
1F
100
AcDbEntity
  8
SCREW
  6
HIDDEN
 48
0.2
100
AcDbLine
 10
29.35548595882374
 20
25.1855691086177
 30
0.0
 11
29.29029809602875
 21
25.33874574696895
 31
0.0
  0
LINE
  5
15E3
330
1F
100
AcDbEntity
  8
SCREW
  6
HIDDEN
 48
0.2
100
AcDbLine
 10
29.33351833205479
 20
25.17482479663081
 30
0.0
 11
29.26782765614791
 21
25.32918293133576
 31
0.0
  0
LINE
  5
15E4
330
1F
100
AcDbEntity
  8
SCREW
  6
HIDDEN
 48
0.2
100
AcDbLine
 10
29.42632535784602
 20
25.1855691086177
 30
0.0
 11
29.36113749505103
 21
25.33874574696895
 31
0.0
  0
LINE
  5
15E5
330
1F
100
AcDbEntity
  8
SCREW
  6
HIDDEN
 48
0.2
100
AcDbLine
 10
29.40435773107707
 20
25.17482479663081
 30
0.0
 11
29.33866705517019
 21
25.32918293133576
 31
0.0
  0
LINE
  5
15E6
330
1F
100
AcDbEntity
  8
SCREW
  6
HIDDEN
 48
0.2
100
AcDbLine
 10
29.4971647568683
 20
25.1855691086177
 30
0.0
 11
29.43197689407331
 21
25.33874574696895
 31
0.0
  0
LINE
  5
15E7
330
1F
100
AcDbEntity
  8
SCREW
  6
HIDDEN
 48
0.2
100
AcDbLine
 10
29.47519713009935
 20
25.17482479663081
 30
0.0
 11
29.40950645419248
 21
25.32918293133576
 31
0.0
  0
LINE
  5
15E8
330
1F
100
AcDbEntity
  8
SCREW
  6
HIDDEN
 48
0.2
100
AcDbLine
 10
29.56800415589059
 20
25.1855691086177
 30
0.0
 11
29.50281629309559
 21
25.33874574696895
 31
0.0
  0
LINE
  5
15E9
330
1F
100
AcDbEntity
  8
SCREW
  6
HIDDEN
 48
0.2
100
AcDbLine
 10
29.54553371601053
 20
25.17600629298266
 30
0.0
 11
29.48034585321476
 21
25.32918293133576
 31
0.0
  0
LINE
  5
15EA
330
1F
100
AcDbEntity
  8
SCREW
  6
HIDDEN
 48
0.2
100
AcDbLine
 10
29.63733113760217
 20
25.1855691086177
 30
0.0
 11
29.57214327480718
 21
25.33874574696895
 31
0.0
  0
LINE
  5
15EB
330
1F
100
AcDbEntity
  8
SCREW
  6
HIDDEN
 48
0.2
100
AcDbLine
 10
29.61536351083322
 20
25.17482479663081
 30
0.0
 11
29.54967283492635
 21
25.32918293133576
 31
0.0
  0
LINE
  5
15EC
330
1F
100
AcDbEntity
  8
SCREW
  6
HIDDEN
 48
0.2
100
AcDbLine
 10
29.92029913349451
 20
25.18438761226423
 30
0.0
 11
29.85511127069952
 21
25.33756425061548
 31
0.0
  0
LINE
  5
15ED
330
1F
100
AcDbEntity
  8
SCREW
  6
HIDDEN
 48
0.2
100
AcDbLine
 10
29.89833150672556
 20
25.17364330027734
 30
0.0
 11
29.83264083081868
 21
25.3280014349823
 31
0.0
  0
ARC
  5
15FA
330
1F
100
AcDbEntity
  8
SCREW
  6
HIDDEN
 48
0.2
100
AcDbCircle
 10
28.49342373094829
 20
25.18255994533118
 30
0.0
 40
0.0122271916842302
100
AcDbArc
 50
274.608986213591
 51
26.06314271735298
  0
LINE
  5
15FC
330
1F
100
AcDbEntity
  8
SCREW
  6
HIDDEN
 48
0.2
100
AcDbLine
 10
28.50106895587163
 20
25.1957770242196
 30
0.0
 11
28.54536823754698
 21
25.1957770242196
 31
0.0
  0
ARC
  5
15FE
330
1F
100
AcDbEntity
  8
SCREW
  6
HIDDEN
 48
0.2
100
AcDbCircle
 10
28.56426312997057
 20
25.18255994533118
 30
0.0
 40
0.0122271916842302
100
AcDbArc
 50
200.0434587331202
 51
26.06314271735298
  0
ARC
  5
15FF
330
1F
100
AcDbEntity
  8
SCREW
  6
HIDDEN
 48
0.2
100
AcDbCircle
 10
28.49857245406377
 20
25.33691808003598
 30
0.0
 40
0.0122271916842302
100
AcDbArc
 50
20.04345873081198
 51
109.9259948915727
  0
LINE
  5
1600
330
1F
100
AcDbEntity
  8
SCREW
  6
HIDDEN
 48
0.2
100
AcDbLine
 10
28.57241116800571
 20
25.19459552786613
 30
0.0
 11
28.61671044968106
 21
25.19459552786613
 31
0.0
  0
LINE
  5
1601
330
1F
100
AcDbEntity
  8
SCREW
  6
HIDDEN
 48
0.2
100
AcDbLine
 10
28.55720826076467
 20
25.33615877052308
 30
0.0
 11
28.51216565447004
 21
25.3361587705231
 31
0.0
  0
ARC
  5
1602
330
1F
100
AcDbEntity
  8
SCREW
  6
HIDDEN
 48
0.2
100
AcDbCircle
 10
28.63560534210465
 20
25.18137844897772
 30
0.0
 40
0.0122271916842302
100
AcDbArc
 50
200.0434587331202
 51
26.06314271735279
  0
ARC
  5
1603
330
1F
100
AcDbEntity
  8
SCREW
  6
HIDDEN
 48
0.2
100
AcDbCircle
 10
28.56941185308606
 20
25.33691808003598
 30
0.0
 40
0.0122271916842302
100
AcDbArc
 50
20.04345873081198
 51
206.0631427159178
  0
LINE
  5
1604
330
1F
100
AcDbEntity
  8
SCREW
  6
HIDDEN
 48
0.2
100
AcDbLine
 10
28.64325056702799
 20
25.19459552786613
 30
0.0
 11
28.68754984870334
 21
25.19459552786613
 31
0.0
  0
LINE
  5
1605
330
1F
100
AcDbEntity
  8
SCREW
  6
HIDDEN
 48
0.2
100
AcDbLine
 10
28.62855047289875
 20
25.33497727416961
 30
0.0
 11
28.58350786660412
 21
25.33497727416963
 31
0.0
  0
ARC
  5
1606
330
1F
100
AcDbEntity
  8
SCREW
  6
HIDDEN
 48
0.2
100
AcDbCircle
 10
28.70694755423873
 20
25.18019695262425
 30
0.0
 40
0.0122271916842302
100
AcDbArc
 50
200.0434587331202
 51
26.06314271735279
  0
ARC
  5
1607
330
1F
100
AcDbEntity
  8
SCREW
  6
HIDDEN
 48
0.2
100
AcDbCircle
 10
28.64075406522013
 20
25.33573658368251
 30
0.0
 40
0.0122271916842302
100
AcDbArc
 50
20.04345873081198
 51
206.0631427159178
  0
LINE
  5
1608
330
1F
100
AcDbEntity
  8
SCREW
  6
HIDDEN
 48
0.2
100
AcDbLine
 10
28.71459277916206
 20
25.19341403151266
 30
0.0
 11
28.75889206083742
 21
25.19341403151266
 31
0.0
  0
LINE
  5
1609
330
1F
100
AcDbEntity
  8
SCREW
  6
HIDDEN
 48
0.2
100
AcDbLine
 10
28.69938987192103
 20
25.33497727416961
 30
0.0
 11
28.6543472656264
 21
25.33497727416963
 31
0.0
  0
ARC
  5
160A
330
1F
100
AcDbEntity
  8
SCREW
  6
HIDDEN
 48
0.2
100
AcDbCircle
 10
28.77778695326101
 20
25.18019695262425
 30
0.0
 40
0.0122271916842302
100
AcDbArc
 50
200.0434587331202
 51
26.06314271735279
  0
ARC
  5
160B
330
1F
100
AcDbEntity
  8
SCREW
  6
HIDDEN
 48
0.2
100
AcDbCircle
 10
28.71209627735421
 20
25.33455508732905
 30
0.0
 40
0.0122271916842302
100
AcDbArc
 50
20.04345873081198
 51
206.0631427159178
  0
LINE
  5
160C
330
1F
100
AcDbEntity
  8
SCREW
  6
HIDDEN
 48
0.2
100
AcDbLine
 10
28.78543217818434
 20
25.19341403151266
 30
0.0
 11
28.8297314598597
 21
25.19341403151266
 31
0.0
  0
LINE
  5
160D
330
1F
100
AcDbEntity
  8
SCREW
  6
HIDDEN
 48
0.2
100
AcDbLine
 10
28.77073208405511
 20
25.33379577781615
 30
0.0
 11
28.72568947776048
 21
25.33379577781616
 31
0.0
  0
ARC
  5
160E
330
1F
100
AcDbEntity
  8
SCREW
  6
HIDDEN
 48
0.2
100
AcDbCircle
 10
28.84862635228328
 20
25.18019695262425
 30
0.0
 40
0.0122271916842302
100
AcDbArc
 50
200.0434587331202
 51
26.06314271735279
  0
ARC
  5
160F
330
1F
100
AcDbEntity
  8
SCREW
  6
HIDDEN
 48
0.2
100
AcDbCircle
 10
28.78293567637649
 20
25.33455508732905
 30
0.0
 40
0.0122271916842302
100
AcDbArc
 50
20.04345873081198
 51
206.0631427159178
  0
LINE
  5
1610
330
1F
100
AcDbEntity
  8
SCREW
  6
HIDDEN
 48
0.2
100
AcDbLine
 10
28.85627157720663
 20
25.19341403151266
 30
0.0
 11
28.90057085888198
 21
25.19341403151266
 31
0.0
  0
LINE
  5
1611
330
1F
100
AcDbEntity
  8
SCREW
  6
HIDDEN
 48
0.2
100
AcDbLine
 10
28.84157148307739
 20
25.33379577781615
 30
0.0
 11
28.79652887678276
 21
25.33379577781616
 31
0.0
  0
ARC
  5
1612
330
1F
100
AcDbEntity
  8
SCREW
  6
HIDDEN
 48
0.2
100
AcDbCircle
 10
28.91946575130557
 20
25.18019695262425
 30
0.0
 40
0.0122271916842302
100
AcDbArc
 50
200.0434587331202
 51
26.06314271735279
  0
ARC
  5
1613
330
1F
100
AcDbEntity
  8
SCREW
  6
HIDDEN
 48
0.2
100
AcDbCircle
 10
28.85377507539877
 20
25.33455508732905
 30
0.0
 40
0.0122271916842302
100
AcDbArc
 50
20.04345873081198
 51
206.0631427159178
  0
LINE
  5
1614
330
1F
100
AcDbEntity
  8
SCREW
  6
HIDDEN
 48
0.2
100
AcDbLine
 10
28.92711097622891
 20
25.19341403151266
 30
0.0
 11
28.97141025790427
 21
25.19341403151266
 31
0.0
  0
LINE
  5
1615
330
1F
100
AcDbEntity
  8
SCREW
  6
HIDDEN
 48
0.2
100
AcDbLine
 10
28.91241088209967
 20
25.33379577781615
 30
0.0
 11
28.86736827580504
 21
25.33379577781616
 31
0.0
  0
ARC
  5
1616
330
1F
100
AcDbEntity
  8
SCREW
  6
HIDDEN
 48
0.2
100
AcDbCircle
 10
28.99030515032785
 20
25.18019695262425
 30
0.0
 40
0.0122271916842302
100
AcDbArc
 50
200.0434587331202
 51
26.06314271735279
  0
ARC
  5
1617
330
1F
100
AcDbEntity
  8
SCREW
  6
HIDDEN
 48
0.2
100
AcDbCircle
 10
28.92461447442105
 20
25.33455508732905
 30
0.0
 40
0.0122271916842302
100
AcDbArc
 50
20.04345873081198
 51
206.0631427159178
  0
LINE
  5
1618
330
1F
100
AcDbEntity
  8
SCREW
  6
HIDDEN
 48
0.2
100
AcDbLine
 10
28.99795037525119
 20
25.19341403151266
 30
0.0
 11
29.04224965692655
 21
25.19341403151266
 31
0.0
  0
LINE
  5
1619
330
1F
100
AcDbEntity
  8
SCREW
  6
HIDDEN
 48
0.2
100
AcDbLine
 10
28.98325028112195
 20
25.33379577781615
 30
0.0
 11
28.93820767482733
 21
25.33379577781616
 31
0.0
  0
ARC
  5
161A
330
1F
100
AcDbEntity
  8
SCREW
  6
HIDDEN
 48
0.2
100
AcDbCircle
 10
29.06114454935013
 20
25.18019695262425
 30
0.0
 40
0.0122271916842302
100
AcDbArc
 50
200.0434587331202
 51
26.06314271735279
  0
ARC
  5
161B
330
1F
100
AcDbEntity
  8
SCREW
  6
HIDDEN
 48
0.2
100
AcDbCircle
 10
28.99545387344334
 20
25.33455508732905
 30
0.0
 40
0.0122271916842302
100
AcDbArc
 50
20.04345873081198
 51
206.0631427159178
  0
LINE
  5
161C
330
1F
100
AcDbEntity
  8
SCREW
  6
HIDDEN
 48
0.2
100
AcDbLine
 10
29.06878977427347
 20
25.19341403151266
 30
0.0
 11
29.11308905594883
 21
25.19341403151266
 31
0.0
  0
LINE
  5
161D
330
1F
100
AcDbEntity
  8
SCREW
  6
HIDDEN
 48
0.2
100
AcDbLine
 10
29.05408968014424
 20
25.33379577781615
 30
0.0
 11
29.0090470738496
 21
25.33379577781616
 31
0.0
  0
ARC
  5
161E
330
1F
100
AcDbEntity
  8
SCREW
  6
HIDDEN
 48
0.2
100
AcDbCircle
 10
29.13198394837241
 20
25.18019695262425
 30
0.0
 40
0.0122271916842302
100
AcDbArc
 50
200.0434587331202
 51
26.06314271735279
  0
ARC
  5
161F
330
1F
100
AcDbEntity
  8
SCREW
  6
HIDDEN
 48
0.2
100
AcDbCircle
 10
29.06629327246562
 20
25.33455508732905
 30
0.0
 40
0.0122271916842302
100
AcDbArc
 50
20.04345873081198
 51
206.0631427159178
  0
LINE
  5
1620
330
1F
100
AcDbEntity
  8
SCREW
  6
HIDDEN
 48
0.2
100
AcDbLine
 10
29.13962917329575
 20
25.19341403151266
 30
0.0
 11
29.18392845497111
 21
25.19341403151266
 31
0.0
  0
LINE
  5
1621
330
1F
100
AcDbEntity
  8
SCREW
  6
HIDDEN
 48
0.2
100
AcDbLine
 10
29.12492907916652
 20
25.33379577781615
 30
0.0
 11
29.07988647287189
 21
25.33379577781616
 31
0.0
  0
ARC
  5
1622
330
1F
100
AcDbEntity
  8
SCREW
  6
HIDDEN
 48
0.2
100
AcDbCircle
 10
29.2028233473947
 20
25.18019695262425
 30
0.0
 40
0.0122271916842302
100
AcDbArc
 50
200.0434587331202
 51
26.06314271735279
  0
ARC
  5
1623
330
1F
100
AcDbEntity
  8
SCREW
  6
HIDDEN
 48
0.2
100
AcDbCircle
 10
29.1371326714879
 20
25.33455508732905
 30
0.0
 40
0.0122271916842302
100
AcDbArc
 50
20.04345873081198
 51
206.0631427159178
  0
LINE
  5
1624
330
1F
100
AcDbEntity
  8
SCREW
  6
HIDDEN
 48
0.2
100
AcDbLine
 10
29.21046857231804
 20
25.19341403151266
 30
0.0
 11
29.25476785399339
 21
25.19341403151266
 31
0.0
  0
LINE
  5
1625
330
1F
100
AcDbEntity
  8
SCREW
  6
HIDDEN
 48
0.2
100
AcDbLine
 10
29.1957684781888
 20
25.33379577781615
 30
0.0
 11
29.15072587189417
 21
25.33379577781616
 31
0.0
  0
ARC
  5
1626
330
1F
100
AcDbEntity
  8
SCREW
  6
HIDDEN
 48
0.2
100
AcDbCircle
 10
29.27366274641698
 20
25.18019695262425
 30
0.0
 40
0.0122271916842302
100
AcDbArc
 50
200.0434587331202
 51
26.06314271735279
  0
ARC
  5
1627
330
1F
100
AcDbEntity
  8
SCREW
  6
HIDDEN
 48
0.2
100
AcDbCircle
 10
29.20797207051018
 20
25.33455508732905
 30
0.0
 40
0.0122271916842302
100
AcDbArc
 50
20.04345873081198
 51
206.0631427159178
  0
LINE
  5
1628
330
1F
100
AcDbEntity
  8
SCREW
  6
HIDDEN
 48
0.2
100
AcDbLine
 10
29.28130797134032
 20
25.19341403151266
 30
0.0
 11
29.32560725301568
 21
25.19341403151266
 31
0.0
  0
LINE
  5
1629
330
1F
100
AcDbEntity
  8
SCREW
  6
HIDDEN
 48
0.2
100
AcDbLine
 10
29.26660787721108
 20
25.33379577781615
 30
0.0
 11
29.22156527091645
 21
25.33379577781616
 31
0.0
  0
ARC
  5
162A
330
1F
100
AcDbEntity
  8
SCREW
  6
HIDDEN
 48
0.2
100
AcDbCircle
 10
29.34450214543926
 20
25.18019695262425
 30
0.0
 40
0.0122271916842302
100
AcDbArc
 50
200.0434587331202
 51
26.06314271735279
  0
ARC
  5
162B
330
1F
100
AcDbEntity
  8
SCREW
  6
HIDDEN
 48
0.2
100
AcDbCircle
 10
29.27881146953247
 20
25.33455508732905
 30
0.0
 40
0.0122271916842302
100
AcDbArc
 50
20.04345873081198
 51
206.0631427159178
  0
LINE
  5
162C
330
1F
100
AcDbEntity
  8
SCREW
  6
HIDDEN
 48
0.2
100
AcDbLine
 10
29.3521473703626
 20
25.19341403151266
 30
0.0
 11
29.39644665203796
 21
25.19341403151266
 31
0.0
  0
LINE
  5
162D
330
1F
100
AcDbEntity
  8
SCREW
  6
HIDDEN
 48
0.2
100
AcDbLine
 10
29.33744727623336
 20
25.33379577781615
 30
0.0
 11
29.29240466993873
 21
25.33379577781616
 31
0.0
  0
ARC
  5
162E
330
1F
100
AcDbEntity
  8
SCREW
  6
HIDDEN
 48
0.2
100
AcDbCircle
 10
29.41534154446154
 20
25.18019695262425
 30
0.0
 40
0.0122271916842302
100
AcDbArc
 50
200.0434587331202
 51
26.06314271735279
  0
ARC
  5
162F
330
1F
100
AcDbEntity
  8
SCREW
  6
HIDDEN
 48
0.2
100
AcDbCircle
 10
29.34965086855475
 20
25.33455508732905
 30
0.0
 40
0.0122271916842302
100
AcDbArc
 50
20.04345873081198
 51
206.0631427159178
  0
LINE
  5
1630
330
1F
100
AcDbEntity
  8
SCREW
  6
HIDDEN
 48
0.2
100
AcDbLine
 10
29.42298676938488
 20
25.19341403151266
 30
0.0
 11
29.46728605106024
 21
25.19341403151266
 31
0.0
  0
LINE
  5
1631
330
1F
100
AcDbEntity
  8
SCREW
  6
HIDDEN
 48
0.2
100
AcDbLine
 10
29.40828667525565
 20
25.33379577781615
 30
0.0
 11
29.36324406896101
 21
25.33379577781616
 31
0.0
  0
ARC
  5
1632
330
1F
100
AcDbEntity
  8
SCREW
  6
HIDDEN
 48
0.2
100
AcDbCircle
 10
29.48618094348383
 20
25.18019695262425
 30
0.0
 40
0.0122271916842302
100
AcDbArc
 50
200.0434587331202
 51
26.06314271735279
  0
ARC
  5
1633
330
1F
100
AcDbEntity
  8
SCREW
  6
HIDDEN
 48
0.2
100
AcDbCircle
 10
29.42049026757703
 20
25.33455508732905
 30
0.0
 40
0.0122271916842302
100
AcDbArc
 50
20.04345873081198
 51
206.0631427159178
  0
LINE
  5
1634
330
1F
100
AcDbEntity
  8
SCREW
  6
HIDDEN
 48
0.2
100
AcDbLine
 10
29.49382616840717
 20
25.19341403151266
 30
0.0
 11
29.53812545008252
 21
25.19341403151266
 31
0.0
  0
LINE
  5
1635
330
1F
100
AcDbEntity
  8
SCREW
  6
HIDDEN
 48
0.2
100
AcDbLine
 10
29.47912607427793
 20
25.33379577781615
 30
0.0
 11
29.4340834679833
 21
25.33379577781616
 31
0.0
  0
ARC
  5
1636
330
1F
100
AcDbEntity
  8
SCREW
  6
HIDDEN
 48
0.2
100
AcDbCircle
 10
29.55702034250611
 20
25.18019695262425
 30
0.0
 40
0.0122271916842302
100
AcDbArc
 50
200.0434587413491
 51
26.06314271735279
  0
ARC
  5
1637
330
1F
100
AcDbEntity
  8
SCREW
  6
HIDDEN
 48
0.2
100
AcDbCircle
 10
29.49132966659931
 20
25.33455508732905
 30
0.0
 40
0.0122271916842302
100
AcDbArc
 50
20.04345873081198
 51
206.0631427159178
  0
LINE
  5
1638
330
1F
100
AcDbEntity
  8
SCREW
  6
HIDDEN
 48
0.2
100
AcDbLine
 10
29.56466556742945
 20
25.19341403151266
 30
0.0
 11
29.6089648491048
 21
25.19341403151266
 31
0.0
  0
LINE
  5
1639
330
1F
100
AcDbEntity
  8
SCREW
  6
HIDDEN
 48
0.2
100
AcDbLine
 10
29.54845305598951
 20
25.33379577781615
 30
0.0
 11
29.50492286700558
 21
25.33379577781616
 31
0.0
  0
ARC
  5
163A
330
1F
100
AcDbEntity
  8
SCREW
  6
HIDDEN
 48
0.2
100
AcDbCircle
 10
29.62634732421769
 20
25.18019695262425
 30
0.0
 40
0.0122271916842302
100
AcDbArc
 50
200.0434587331202
 51
26.06314271735279
  0
ARC
  5
163B
330
1F
100
AcDbEntity
  8
SCREW
  6
HIDDEN
 48
0.2
100
AcDbCircle
 10
29.5606566483109
 20
25.33455508732905
 30
0.0
 40
0.0122271916842302
100
AcDbArc
 50
20.04345873081198
 51
206.0631427159178
  0
LINE
  5
163C
330
1F
100
AcDbEntity
  8
SCREW
  6
HIDDEN
 48
0.2
100
AcDbLine
 10
29.63399254914104
 20
25.19341403151266
 30
0.0
 11
29.6782918308164
 21
25.19341403151266
 31
0.0
  0
LINE
  5
163D
330
1F
100
AcDbEntity
  8
SCREW
  6
HIDDEN
 48
0.2
100
AcDbLine
 10
29.6192924550118
 20
25.33379577781615
 30
0.0
 11
29.57424984871717
 21
25.33379577781616
 31
0.0
  0
ARC
  5
163E
330
1F
100
AcDbEntity
  8
SCREW
  6
HIDDEN
 48
0.2
100
AcDbCircle
 10
29.90931532011003
 20
25.17901545627078
 30
0.0
 40
0.0122271916842302
100
AcDbArc
 50
200.0434587331202
 51
26.06314271735279
  0
ARC
  5
163F
330
1F
100
AcDbEntity
  8
SCREW
  6
HIDDEN
 48
0.2
100
AcDbCircle
 10
29.84362464420323
 20
25.33337359097558
 30
0.0
 40
0.0122271916842302
100
AcDbArc
 50
20.04345873081198
 51
206.0631427159178
  0
LINE
  5
1640
330
1F
100
AcDbEntity
  8
SCREW
  6
HIDDEN
 48
0.2
100
AcDbLine
 10
28.46453151722643
 20
25.09958742344963
 30
0.0
 11
28.46453151722643
 21
25.32099084646076
 31
0.0
  0
LINE
  5
1641
330
1F
100
AcDbEntity
  8
SCREW
  6
HIDDEN
 48
0.2
100
AcDbLine
 10
28.46453151722643
 20
25.37027824936933
 30
0.0
 11
28.46453151722643
 21
25.41913129240459
 31
0.0
  0
LINE
  5
1642
330
1F
100
AcDbEntity
  8
SCREW
  6
HIDDEN
 48
0.2
100
AcDbLine
 10
28.46453151722643
 20
25.09958742344963
 30
0.0
 11
28.49440580135908
 21
25.09958742344963
 31
0.0
  0
ARC
  5
1643
330
1F
100
AcDbEntity
  8
SCREW
  6
HIDDEN
 48
0.2
100
AcDbCircle
 10
28.60292410229164
 20
25.25935935792711
 30
0.0
 40
0.2113754447605181
100
AcDbArc
 50
130.8987284875914
 51
144.7378328725499
  0
ARC
  5
1644
330
1F
100
AcDbEntity
  8
SCREW
  6
HIDDEN
 48
0.2
100
AcDbCircle
 10
28.60292410229164
 20
25.25935935792711
 30
0.0
 40
0.2113754447605181
100
AcDbArc
 50
157.6998079902702
 51
229.1012715124083
  0
LINE
  5
1645
330
1F
100
AcDbEntity
  8
SCREW
  6
HIDDEN
 48
0.2
100
AcDbLine
 10
28.46453151722643
 20
25.41913129240458
 30
0.0
 11
28.49440580135908
 21
25.41913129240459
 31
0.0
  0
LINE
  5
1646
330
1F
100
AcDbEntity
  8
SCREW
  6
HIDDEN
 48
0.2
100
AcDbLine
 10
29.70817053662446
 20
25.1855691086177
 30
0.0
 11
29.64298267382947
 21
25.33874574696896
 31
0.0
  0
LINE
  5
1647
330
1F
100
AcDbEntity
  8
SCREW
  6
HIDDEN
 48
0.2
100
AcDbLine
 10
29.6862029098555
 20
25.17482479663081
 30
0.0
 11
29.62051223394862
 21
25.32918293133577
 31
0.0
  0
ARC
  5
1648
330
1F
100
AcDbEntity
  8
SCREW
  6
HIDDEN
 48
0.2
100
AcDbCircle
 10
29.69768953635178
 20
25.17901545627079
 30
0.0
 40
0.0122271916842302
100
AcDbArc
 50
200.0434587331202
 51
26.06314271735279
  0
ARC
  5
1649
330
1F
100
AcDbEntity
  8
SCREW
  6
HIDDEN
 48
0.2
100
AcDbCircle
 10
29.63149604733318
 20
25.33455508732906
 30
0.0
 40
0.0122271916842302
100
AcDbArc
 50
20.04345873081198
 51
206.0631427159178
  0
LINE
  5
164A
330
1F
100
AcDbEntity
  8
SCREW
  6
HIDDEN
 48
0.2
100
AcDbLine
 10
29.70533476127512
 20
25.1922325351592
 30
0.0
 11
29.74963404295047
 21
25.1922325351592
 31
0.0
  0
LINE
  5
164B
330
1F
100
AcDbEntity
  8
SCREW
  6
HIDDEN
 48
0.2
100
AcDbLine
 10
29.69013185403408
 20
25.33379577781616
 30
0.0
 11
29.64508924773946
 21
25.33379577781617
 31
0.0
  0
LINE
  5
164C
330
1F
100
AcDbEntity
  8
SCREW
  6
HIDDEN
 48
0.2
100
AcDbLine
 10
29.77951274875854
 20
25.18438761226424
 30
0.0
 11
29.71432488596354
 21
25.3375642506155
 31
0.0
  0
LINE
  5
164D
330
1F
100
AcDbEntity
  8
SCREW
  6
HIDDEN
 48
0.2
100
AcDbLine
 10
29.75754512198959
 20
25.17364330027735
 30
0.0
 11
29.69185444608271
 21
25.32800143498231
 31
0.0
  0
ARC
  5
164E
330
1F
100
AcDbEntity
  8
SCREW
  6
HIDDEN
 48
0.2
100
AcDbCircle
 10
29.76852893537406
 20
25.1790154562708
 30
0.0
 40
0.0122271916842302
100
AcDbArc
 50
200.0434587331202
 51
26.06314271735279
  0
ARC
  5
164F
330
1F
100
AcDbEntity
  8
SCREW
  6
HIDDEN
 48
0.2
100
AcDbCircle
 10
29.70283825946726
 20
25.3333735909756
 30
0.0
 40
0.0122271916842302
100
AcDbArc
 50
20.04345873081198
 51
206.0631427159178
  0
LINE
  5
1650
330
1F
100
AcDbEntity
  8
SCREW
  6
HIDDEN
 48
0.2
100
AcDbLine
 10
29.7761741602974
 20
25.19223253515921
 30
0.0
 11
29.82047344197276
 21
25.1922325351592
 31
0.0
  0
LINE
  5
1651
330
1F
100
AcDbEntity
  8
SCREW
  6
HIDDEN
 48
0.2
100
AcDbLine
 10
29.76147406616816
 20
25.3326142814627
 30
0.0
 11
29.71643145987354
 21
25.33261428146271
 31
0.0
  0
LINE
  5
1652
330
1F
100
AcDbEntity
  8
SCREW
  6
HIDDEN
 48
0.2
100
AcDbLine
 10
29.85035214778082
 20
25.18438761226425
 30
0.0
 11
29.78516428498583
 21
25.33756425061551
 31
0.0
  0
LINE
  5
1653
330
1F
100
AcDbEntity
  8
SCREW
  6
HIDDEN
 48
0.2
100
AcDbLine
 10
29.82838452101187
 20
25.17364330027736
 30
0.0
 11
29.76269384510499
 21
25.32800143498232
 31
0.0
  0
ARC
  5
1654
330
1F
100
AcDbEntity
  8
SCREW
  6
HIDDEN
 48
0.2
100
AcDbCircle
 10
29.83936833439634
 20
25.1790154562708
 30
0.0
 40
0.0122271916842302
100
AcDbArc
 50
200.0434587331202
 51
26.06314271735279
  0
ARC
  5
1655
330
1F
100
AcDbEntity
  8
SCREW
  6
HIDDEN
 48
0.2
100
AcDbCircle
 10
29.77367765848955
 20
25.3333735909756
 30
0.0
 40
0.0122271916842302
100
AcDbArc
 50
20.04345873081198
 51
206.0631427159178
  0
LINE
  5
1656
330
1F
100
AcDbEntity
  8
SCREW
  6
HIDDEN
 48
0.2
100
AcDbLine
 10
29.84701355931968
 20
25.19223253515922
 30
0.0
 11
29.89131284099504
 21
25.19223253515921
 31
0.0
  0
LINE
  5
1657
330
1F
100
AcDbEntity
  8
SCREW
  6
HIDDEN
 48
0.2
100
AcDbLine
 10
29.83231346519044
 20
25.33261428146271
 30
0.0
 11
29.78727085889582
 21
25.33261428146272
 31
0.0
  0
ARC
  5
1658
330
1F
100
AcDbEntity
  8
SCREW
  6
HIDDEN
 48
0.2
100
AcDbCircle
 10
30.33395628190284
 20
25.25731948132508
 30
0.0
 40
0.0161267757294318
100
AcDbArc
 50
0.0
 51
90.0000000000171
  0
ARC
  5
1659
330
1F
100
AcDbEntity
  8
SCREW
  6
HIDDEN
 48
0.2
100
AcDbCircle
 10
30.44556806661927
 20
24.71133479085591
 30
0.0
 40
0.5414855494839421
100
AcDbArc
 50
101.8951553356812
 51
117.0150992582616
  0
ARC
  5
165A
330
1F
100
AcDbEntity
  8
SCREW
  6
HIDDEN
 48
0.2
100
AcDbCircle
 10
30.33395628190284
 20
25.25731948132508
 30
0.0
 40
0.0161267757294318
100
AcDbArc
 50
269.9999999999829
 51
0.0
  0
ARC
  5
165B
330
1F
100
AcDbEntity
  8
SCREW
  6
HIDDEN
 48
0.2
100
AcDbCircle
 10
30.44556806661927
 20
25.80330417179424
 30
0.0
 40
0.5414855494839421
100
AcDbArc
 50
240.0518963641911
 51
258.1048446643186
  0
LINE
  5
165C
330
1F
100
AcDbEntity
  8
SCREW
  6
HIDDEN
 48
0.2
100
AcDbLine
 10
30.17525015132914
 20
25.33411889392101
 30
0.0
 11
30.13683521712477
 21
25.33411889392102
 31
0.0
  0
LINE
  5
165D
330
1F
100
AcDbEntity
  8
SCREW
  6
HIDDEN
 48
0.2
100
AcDbLine
 10
30.19657791754865
 20
25.19373714761754
 30
0.0
 11
30.19961163452053
 21
25.19373714761755
 31
0.0
  0
LINE
  5
165E
330
1F
100
AcDbEntity
  8
SCREW
  6
HIDDEN
 48
0.2
100
AcDbLine
 10
29.9902461192082
 20
25.18438761226421
 30
0.0
 11
29.9250582564132
 21
25.33756425061546
 31
0.0
  0
LINE
  5
165F
330
1F
100
AcDbEntity
  8
SCREW
  6
HIDDEN
 48
0.2
100
AcDbLine
 10
29.96827849243924
 20
25.17364330027732
 30
0.0
 11
29.90258781653237
 21
25.32800143498227
 31
0.0
  0
ARC
  5
1660
330
1F
100
AcDbEntity
  8
SCREW
  6
HIDDEN
 48
0.2
100
AcDbCircle
 10
29.97926230582372
 20
25.17901545627076
 30
0.0
 40
0.0122271916842302
100
AcDbArc
 50
200.0434587331202
 51
26.06314271735279
  0
ARC
  5
1661
330
1F
100
AcDbEntity
  8
SCREW
  6
HIDDEN
 48
0.2
100
AcDbCircle
 10
29.91357162991692
 20
25.33337359097556
 30
0.0
 40
0.0122271916842302
100
AcDbArc
 50
20.04345873081198
 51
206.0631427159178
  0
LINE
  5
1662
330
1F
100
AcDbEntity
  8
SCREW
  6
HIDDEN
 48
0.2
100
AcDbLine
 10
29.91696054503337
 20
25.1922325351592
 30
0.0
 11
29.96125982670873
 21
25.19223253515919
 31
0.0
  0
LINE
  5
1663
330
1F
100
AcDbEntity
  8
SCREW
  6
HIDDEN
 48
0.2
100
AcDbLine
 10
29.90226045090413
 20
25.33261428146269
 30
0.0
 11
29.8572178446095
 21
25.33261428146269
 31
0.0
  0
LINE
  5
1664
330
1F
100
AcDbEntity
  8
SCREW
  6
HIDDEN
 48
0.2
100
AcDbLine
 10
30.06019310492189
 20
25.18438761226418
 30
0.0
 11
29.99500524212689
 21
25.33756425061544
 31
0.0
  0
LINE
  5
1665
330
1F
100
AcDbEntity
  8
SCREW
  6
HIDDEN
 48
0.2
100
AcDbLine
 10
30.03822547815293
 20
25.1736433002773
 30
0.0
 11
29.97253480224605
 21
25.32800143498225
 31
0.0
  0
ARC
  5
1666
330
1F
100
AcDbEntity
  8
SCREW
  6
HIDDEN
 48
0.2
100
AcDbCircle
 10
30.04920929153741
 20
25.17901545627074
 30
0.0
 40
0.0122271916842302
100
AcDbArc
 50
200.0434587331202
 51
26.06314271735279
  0
ARC
  5
1667
330
1F
100
AcDbEntity
  8
SCREW
  6
HIDDEN
 48
0.2
100
AcDbCircle
 10
29.98351861563061
 20
25.33337359097554
 30
0.0
 40
0.0122271916842302
100
AcDbArc
 50
20.04345873081198
 51
206.0631427159178
  0
LINE
  5
1668
330
1F
100
AcDbEntity
  8
SCREW
  6
HIDDEN
 48
0.2
100
AcDbLine
 10
29.98690753074706
 20
25.19223253515918
 30
0.0
 11
30.03120681242241
 21
25.19223253515917
 31
0.0
  0
LINE
  5
1669
330
1F
100
AcDbEntity
  8
SCREW
  6
HIDDEN
 48
0.2
100
AcDbLine
 10
29.97220743661782
 20
25.33261428146266
 30
0.0
 11
29.92716483032319
 21
25.33261428146267
 31
0.0
  0
LINE
  5
166A
330
1F
100
AcDbEntity
  8
SCREW
  6
HIDDEN
 48
0.2
100
AcDbLine
 10
30.13014009063557
 20
25.18438761226417
 30
0.0
 11
30.06495222784058
 21
25.33756425061542
 31
0.0
  0
LINE
  5
166B
330
1F
100
AcDbEntity
  8
SCREW
  6
HIDDEN
 48
0.2
100
AcDbLine
 10
30.10817246386662
 20
25.17364330027727
 30
0.0
 11
30.04248178795974
 21
25.32800143498223
 31
0.0
  0
ARC
  5
166C
330
1F
100
AcDbEntity
  8
SCREW
  6
HIDDEN
 48
0.2
100
AcDbCircle
 10
30.11915627725109
 20
25.17901545627072
 30
0.0
 40
0.0122271916842302
100
AcDbArc
 50
200.0434587331202
 51
26.06314271735279
  0
ARC
  5
166D
330
1F
100
AcDbEntity
  8
SCREW
  6
HIDDEN
 48
0.2
100
AcDbCircle
 10
30.0534656013443
 20
25.33337359097552
 30
0.0
 40
0.0122271916842302
100
AcDbArc
 50
20.04345873081198
 51
206.0631427159178
  0
LINE
  5
166E
330
1F
100
AcDbEntity
  8
SCREW
  6
HIDDEN
 48
0.2
100
AcDbLine
 10
30.05685451646074
 20
25.19223253515916
 30
0.0
 11
30.1011537981361
 21
25.19223253515915
 31
0.0
  0
LINE
  5
166F
330
1F
100
AcDbEntity
  8
SCREW
  6
HIDDEN
 48
0.2
100
AcDbLine
 10
30.04215442233151
 20
25.33261428146265
 30
0.0
 11
29.99711181603688
 21
25.33261428146265
 31
0.0
  0
LINE
  5
1670
330
1F
100
AcDbEntity
  8
SCREW
  6
HIDDEN
 48
0.2
100
AcDbLine
 10
30.20008707634926
 20
25.18438761226414
 30
0.0
 11
30.13489921355426
 21
25.3375642506154
 31
0.0
  0
LINE
  5
1671
330
1F
100
AcDbEntity
  8
SCREW
  6
HIDDEN
 48
0.2
100
AcDbLine
 10
30.1781194495803
 20
25.17364330027725
 30
0.0
 11
30.11242877367343
 21
25.32800143498221
 31
0.0
  0
ARC
  5
1672
330
1F
100
AcDbEntity
  8
SCREW
  6
HIDDEN
 48
0.2
100
AcDbCircle
 10
30.18910326296478
 20
25.17901545627069
 30
0.0
 40
0.0122271916842302
100
AcDbArc
 50
200.0434587331202
 51
26.06314271735279
  0
ARC
  5
1673
330
1F
100
AcDbEntity
  8
SCREW
  6
HIDDEN
 48
0.2
100
AcDbCircle
 10
30.12341258705799
 20
25.33337359097549
 30
0.0
 40
0.0122271916842302
100
AcDbArc
 50
20.04345873081198
 51
206.0631427159178
  0
LINE
  5
1674
330
1F
100
AcDbEntity
  8
SCREW
  6
HIDDEN
 48
0.2
100
AcDbLine
 10
30.12680150217443
 20
25.19223253515913
 30
0.0
 11
30.17110078384979
 21
25.19223253515912
 31
0.0
  0
LINE
  5
1675
330
1F
100
AcDbEntity
  8
SCREW
  6
HIDDEN
 48
0.2
100
AcDbLine
 10
30.1121014080452
 20
25.33261428146262
 30
0.0
 11
30.06705880175057
 21
25.33261428146263
 31
0.0
  0
LEADER
  5
1676
330
1F
100
AcDbEntity
  8
LEADERS
100
AcDbLeader
  3
Standard
 76
     3
 10
28.39154865753112
 20
25.25935935792711
 30
0.0
 10
26.79436459328035
 20
24.85628705912315
 30
0.0
 10
25.40699532578174
 20
24.85628705912315
 30
0.0
1001
ACAD
1000
DSTYLE
1002
{
1070
   147
1040
0.09375
1070
    77
1070
     0
1070
    41
1040
0.3125
1070
    90
1070
     1
1002
}
  0
LWPOLYLINE
  5
1677
330
1F
100
AcDbEntity
  8
FLASHING TAPE
100
AcDbPolyline
 90
        4
 70
     0
 43
0.03125
 10
28.15369023639825
 20
22.00138000243761
 10
28.15369023639825
 20
17.50353628521471
 10
27.08776773185836
 20
17.50353628521471
 10
24.82319363339515
 20
17.50353628521471
  0
LWPOLYLINE
  5
1678
330
1F
100
AcDbEntity
  8
FLASHING
100
AcDbPolyline
 90
        3
 70
     0
 43
0.03
 10
28.04263273626582
 20
22.01800162675983
 10
28.04263273626582
 20
17.77855730625955
 10
24.82319363339515
 20
17.77855730625955
  0
LWPOLYLINE
  5
1679
330
1F
100
AcDbEntity
  8
FLASHING
100
AcDbPolyline
 90
        3
 70
     0
 43
0.03
 10
28.09225022826517
 20
22.01800162675983
 10
28.09225022826516
 20
17.58998119265127
 10
24.82319363339515
 20
17.58998119265127
  0
LINE
  5
167A
330
1F
100
AcDbEntity
  8
WALL CONSTRUCTION
100
AcDbLine
 10
29.19940550931069
 20
28.08880047972947
 30
0.0
 11
29.19940550931069
 21
21.67291976512051
 31
0.0
  0
LINE
  5
167B
330
1F
100
AcDbEntity
  8
WALL CONSTRUCTION
100
AcDbLine
 10
29.1994055093107
 20
16.95518805558933
 30
0.0
 11
24.82333167212599
 21
16.95518805558933
 31
0.0
  0
LINE
  5
167C
330
1F
100
AcDbEntity
  8
WALL CONSTRUCTION
100
AcDbLine
 10
29.1994055093107
 20
17.46740084468157
 30
0.0
 11
24.82319363339515
 21
17.46740084468157
 31
0.0
  0
LWPOLYLINE
  5
167D
330
1F
100
AcDbEntity
  8
SHINGLE
100
AcDbPolyline
 90
        2
 70
     0
 43
0.06
 10
28.02001290056136
 20
17.68877208700577
 10
24.82319363339515
 20
17.68877208700577
  0
LWPOLYLINE
  5
167E
330
1F
100
AcDbEntity
  8
SHINGLE
100
AcDbPolyline
 90
        2
 70
     0
 43
0.06
 10
27.97705918318659
 20
17.8652817361973
 10
24.82319363339515
 20
17.8652817361973
  0
INSERT
  5
167F
330
1F
100
AcDbEntity
  8
NOTES
100
AcDbBlockReference
  2
_ArchTick
 10
27.32339591762263
 20
17.90501090371047
 30
0.0
 41
0.0625
 42
0.0625
 43
0.0625
 50
270.0
  0
LWPOLYLINE
  5
1682
330
1F
100
AcDbEntity
  8
A-DE-35
  6
Continuous
100
AcDbPolyline
 90
        6
 70
     0
 43
0.0
 10
24.82319363339515
 20
18.0058793406966
 10
24.82319363339515
 20
17.40008624509358
 10
24.7373349640372
 20
17.36883624509358
 10
24.90905230275311
 20
17.30633624509358
 10
24.82319363339515
 20
17.27508624509358
 10
24.82335387448485
 20
15.76458971261541
  0
LEADER
  5
1683
330
1F
100
AcDbEntity
  8
LEADERS
100
AcDbLeader
  3
Standard
 76
     3
 10
27.75774126760591
 20
17.8652817361973
 30
0.0
 10
27.07743475359807
 20
18.74853786911925
 30
0.0
 10
25.92238770642118
 20
18.74853786911925
 30
0.0
1001
ACAD
1000
DSTYLE
1002
{
1070
   147
1040
0.09375
1070
    77
1070
     0
1070
    41
1040
0.3125
1070
    90
1070
     1
1002
}
  0
LEADER
  5
1684
330
1F
100
AcDbEntity
  8
LEADERS
100
AcDbLeader
  3
Standard
 76
     3
 10
27.28808745947823
 20
17.50353628521471
 30
0.0
 10
26.86248243578676
 20
18.30839229845623
 30
0.0
 10
26.49614181330226
 20
18.30839229845623
 30
0.0
1001
ACAD
1000
DSTYLE
1002
{
1070
   147
1040
0.09375
1070
    77
1070
     0
1070
    41
1040
0.3125
1070
    90
1070
     1
1002
}
  0
TEXT
  5
1685
330
1F
100
AcDbEntity
  8
NOTES
100
AcDbText
 10
24.20637292333043
 20
18.69908915029004
 30
0.0
 40
0.14
  1
SHINGLE ROOF
  7
DETAILS
100
AcDbText
  0
TEXT
  5
1686
330
1F
100
AcDbEntity
  8
NOTES
100
AcDbText
 10
24.20637292333043
 20
18.39685227706227
 30
0.0
 40
0.14
  1
ROOF UNDERLAYMENT- 
  7
DETAILS
100
AcDbText
  0
TEXT
  5
1687
330
1F
100
AcDbEntity
  8
NOTES
100
AcDbText
 10
24.20637292333043
 20
18.16894826537614
 30
0.0
 40
0.14
  1
TURN UP AT SIDE WALL 
  7
DETAILS
100
AcDbText
  0
LWPOLYLINE
  5
1689
330
1F
100
AcDbEntity
  8
A-DE-35
  6
Continuous
100
AcDbPolyline
 90
        6
 70
     0
 43
0.0
 10
24.3109161952266
 20
16.03121728702433
 10
28.12965137345471
 20
16.03121728702433
 10
28.16090137345471
 20
15.94535861766637
 10
28.2234013734547
 20
16.11707595638228
 10
28.25465137345471
 20
16.03121728702433
 10
31.11946321367215
 20
16.03137752811402
  0
LEADER
  5
168A
330
1F
100
AcDbEntity
  8
LEADERS
100
AcDbLeader
  3
Standard
 76
     3
 10
28.09225022826517
 20
19.54096881587814
 30
0.0
 10
27.13562321190161
 20
19.9068542463827
 30
0.0
 10
26.75492918062818
 20
19.9068542463827
 30
0.0
1001
ACAD
1000
DSTYLE
1002
{
1070
   147
1040
0.09375
1070
    77
1070
     0
1070
    41
1040
0.3125
1070
    90
1070
     1
1002
}
  0
LEADER
  5
168B
330
1F
100
AcDbEntity
  8
LEADERS
100
AcDbLeader
  3
Standard
 76
     3
 10
28.04263273626582
 20
19.30099524962963
 30
0.0
 10
27.13562321190161
 20
19.9068542463827
 30
0.0
 10
26.75492918062818
 20
19.9068542463827
 30
0.0
1001
ACAD
1000
DSTYLE
1002
{
1070
   147
1040
0.09375
1070
    77
1070
     0
1070
    41
1040
0.3125
1070
    90
1070
     1
1002
}
  0
LEADER
  5
168C
330
1F
100
AcDbEntity
  8
LEADERS
100
AcDbLeader
  3
Standard
 76
     3
 10
27.51459430076521
 20
17.68877208700577
 30
0.0
 10
27.07743475359807
 20
18.74853786911925
 30
0.0
 10
25.92238770642118
 20
18.74853786911925
 30
0.0
1001
ACAD
1000
DSTYLE
1002
{
1070
   147
1040
0.09375
1070
    77
1070
     0
1070
    41
1040
0.3125
1070
    90
1070
     1
1002
}
  0
TEXT
  5
168D
330
1F
100
AcDbEntity
  8
NOTES
100
AcDbText
 10
24.20637292333043
 20
19.8169131449844
 30
0.0
 40
0.14
  1
STEP FLASHING AT RAKE
  7
DETAILS
100
AcDbText
  0
TEXT
  5
168E
330
1F
100
AcDbEntity
  8
NOTES
100
AcDbText
 10
24.20637292333043
 20
19.62473628001873
 30
0.0
 40
0.14
  1
PER ROOF MANUFACTURER'S
  7
DETAILS
100
AcDbText
  0
TEXT
  5
168F
330
1F
100
AcDbEntity
  8
NOTES
100
AcDbText
 10
24.20637292333043
 20
19.41071469039227
 30
0.0
 40
0.14
  1
RECOMMENDATIONS
  7
DETAILS
100
AcDbText
  0
LWPOLYLINE
  5
1690
330
1F
100
AcDbEntity
  8
WALL CONSTRUCTION
100
AcDbPolyline
 90
        4
 70
     0
 43
0.0
 10
27.6994055093107
 20
16.03121728702433
 10
27.6994055093107
 20
16.95518805558933
 10
29.1994055093107
 20
16.95518805558933
 10
29.1994055093107
 20
16.0312701311344
1001
GENIUS_GENREC_14
1002
{
1000
PYDIR
1011
27.6994055093107
1021
13.45518805558933
1031
0.0
1002
}
1002
{
1000
PXDIR
1011
29.1994055093107
1021
16.95518805558933
1031
0.0
1002
}
1002
{
1000
PORI
1011
27.6994055093107
1021
16.95518805558933
1031
0.0
1002
}
1002
{
1000
PINS
1011
27.6994055093107
1021
16.95518805558933
1031
0.0
1002
}
1002
{
1000
PINS2
1011
29.1994055093107
1021
13.45518805558933
1031
0.0
1002
}
1002
{
1000
C
1070
     1
1002
}
1001
GENIUS_GENODEF_13
1002
{
1000
HIER
1070
     0
1002
}
1002
{
1000
MANEDIT
1070
     0
1002
}
1002
{
1000
NOSEL
1070
     0
1002
}
1002
{
1000
BEHIND
1070
     0
1002
}
1002
{
1000
OTHER
1070
     0
1002
}
1002
{
1000
REACTOR
1002
}
1001
GENIUS_GENOBJ-N-REC_13
1002
{
1000
OWNER
1000
GEN
1002
}
  0
LINE
  5
1691
330
1F
100
AcDbEntity
  8
WALL CONSTRUCTION
100
AcDbLine
 10
27.6994055093107
 20
16.95518805558933
 30
0.0
 11
28.09539298155284
 21
16.03121728702433
 31
0.0
  0
LINE
  5
1692
330
1F
100
AcDbEntity
  8
WALL CONSTRUCTION
100
AcDbLine
 10
29.1994055093107
 20
16.95518805558933
 30
0.0
 11
28.80343119231939
 21
16.03124798260961
 31
0.0
  0
LEADER
  5
1694
330
1F
100
AcDbEntity
  8
LEADERS
100
AcDbLeader
  3
Standard
 76
     2
 10
28.89715773376092
 20
24.51341516609886
 30
0.0
 10
25.51416501607907
 20
24.51341516609886
 30
0.0
1001
ACAD
1000
DSTYLE
1002
{
1070
   147
1040
0.09375
1070
    77
1070
     0
1070
    41
1040
0.3125
1070
    90
1070
     1
1002
}
  0
LEADER
  5
1695
330
1F
100
AcDbEntity
  8
LEADERS
100
AcDbLeader
  3
Standard
 76
     2
 10
29.57686791749539
 20
21.48907323887737
 30
0.0
 10
26.46249417895643
 20
21.48907323887737
 30
0.0
1001
ACAD
1000
DSTYLE
1002
{
1070
   147
1040
0.09375
1070
    77
1070
     0
1070
    41
1040
0.3125
1070
    90
1070
     1
1002
}
  0
LINE
  5
16F2
330
1F
100
AcDbEntity
  8
0
100
AcDbLine
 10
28.18719272021846
 20
17.46740084468157
 30
0.0
 11
28.18719272021846
 21
22.11294411871312
 31
0.0
  0
LINE
  5
16F3
330
1F
100
AcDbEntity
  8
0
100
AcDbLine
 10
28.18719272021846
 20
22.11294411871312
 30
0.0
 11
28.68719272021845
 21
22.61294411871312
 31
0.0
  0
LWPOLYLINE
  5
1700
330
1F
100
AcDbEntity
  8
FLASHING
100
AcDbPolyline
 90
        7
 70
     0
 43
0.03125
 10
27.92867001270812
 20
20.31412848623097
 10
27.67385647252482
 20
20.16117356506325
 10
27.69743969773689
 20
20.11294411871312
 10
27.97383697175141
 20
20.27889812649901
 10
27.97383697175141
 20
22.01411825742686
 10
28.64499488040231
 20
22.68527616607775
 10
28.6449948804023
 20
24.68527616607775
  0
LINE
  5
172E
330
1F
100
AcDbEntity
  8
A-DE-10
100
AcDbLine
 10
28.1007142199726
 20
28.08880047972947
 30
0.0
 11
28.1007142199726
 21
25.36057150604376
 31
0.0
  0
LINE
  5
172F
330
1F
100
AcDbEntity
  8
BRICK
100
AcDbLine
 10
28.05386246607552
 20
28.08880047972947
 30
0.0
 11
28.05386246607552
 21
25.46484263710935
 31
0.0
  0
LINE
  5
173F
330
1F
100
AcDbEntity
  8
NOTES
100
AcDbLine
 10
27.60445977692573
 20
20.16117356506325
 30
0.0
 11
27.25773518450597
 21
20.16117356506325
 31
0.0
  0
INSERT
  5
1740
330
1F
100
AcDbEntity
  8
NOTES
100
AcDbBlockReference
  2
_ArchTick
 10
27.32339591762263
 20
20.16117356506325
 30
0.0
 41
0.0625
 42
0.0625
 43
0.0625
 50
90.0
  0
LINE
  5
1741
330
1F
100
AcDbEntity
  8
NOTES
100
AcDbLine
 10
27.90217131983228
 20
22.01411825742686
 30
0.0
 11
27.25773518450597
 21
22.01411825742686
 31
0.0
  0
LINE
  5
1742
330
1F
100
AcDbEntity
  8
NOTES
100
AcDbLine
 10
27.32339591762263
 20
20.16117356506326
 30
0.0
 11
27.32339591762263
 21
22.07250371178212
 31
0.0
  0
INSERT
  5
1743
330
1F
100
AcDbEntity
  8
NOTES
100
AcDbBlockReference
  2
_ArchTick
 10
27.32339591762263
 20
22.01411825742686
 30
0.0
 41
0.0625
 42
0.0625
 43
0.0625
 50
90.0
  0
TEXT
  5
1744
330
1F
100
AcDbEntity
  8
NOTES
100
AcDbText
 10
27.44913339172701
 20
20.89048850157896
 30
0.0
 40
0.09375
  1
(51 mm)
 50
90.0
  7
DETAILS
100
AcDbText
  0
TEXT
  5
1745
330
1F
100
AcDbEntity
  8
NOTES
100
AcDbText
 10
27.28323892832833
 20
20.94036738916672
 30
0.0
 40
0.09375
  1
2" MIN.
 50
90.0
  7
DETAILS
100
AcDbText
  0
LINE
  5
1746
330
1F
100
AcDbEntity
  8
NOTES
100
AcDbLine
 10
28.64499488040231
 20
22.68527616607775
 30
0.0
 11
29.84170657946919
 21
22.68527616607775
 31
0.0
  0
INSERT
  5
1747
330
1F
100
AcDbEntity
  8
NOTES
100
AcDbBlockReference
  2
_ArchTick
 10
29.78249167430357
 20
22.68527616607775
 30
0.0
 41
-0.0625
 42
0.0625
 43
0.0625
  0
LINE
  5
1748
330
1F
100
AcDbEntity
  8
NOTES
100
AcDbLine
 10
28.6449948804023
 20
24.68527616607775
 30
0.0
 11
29.84170657946919
 21
24.68527616607774
 31
0.0
  0
LINE
  5
1749
330
1F
100
AcDbEntity
  8
NOTES
100
AcDbLine
 10
29.78249167430357
 20
22.62277616607775
 30
0.0
 11
29.78249167430357
 21
22.84289631688801
 31
0.0
  0
INSERT
  5
174A
330
1F
100
AcDbEntity
  8
NOTES
100
AcDbBlockReference
  2
_ArchTick
 10
29.78249167430357
 20
24.68527616607775
 30
0.0
 41
-0.0625
 42
0.0625
 43
0.0625
  0
TEXT
  5
174B
330
1F
100
AcDbEntity
  8
NOTES
100
AcDbText
 10
29.72311222489055
 20
23.69370609695979
 30
0.0
 40
0.13
  1
(51 mm)
 50
90.0
  7
DETAILS
100
AcDbText
  0
TEXT
  5
174C
330
1F
100
AcDbEntity
  8
NOTES
100
AcDbText
 10
29.94754297969599
 20
23.74358498454755
 30
0.0
 40
0.13
  1
2" MIN.
 50
90.0
  7
DETAILS
100
AcDbText
  0
LINE
  5
182A
330
1F
100
AcDbEntity
  8
BRICK
100
AcDbLine
 10
27.55386246607552
 20
22.83984263710935
 30
0.0
 11
27.55386246607552
 21
22.83984263710935
 31
0.0
  0
LINE
  5
182B
330
1F
100
AcDbEntity
  8
WEEP HOLE
 48
1.25
100
AcDbLine
 10
27.55386246607552
 20
22.83984263710935
 30
0.0
 11
28.05386246607552
 21
23.83984263710935
 31
0.0
  0
LINE
  5
182C
330
1F
100
AcDbEntity
  8
WEEP HOLE
 48
1.25
100
AcDbLine
 10
28.05386246607552
 20
22.83984263710935
 30
0.0
 11
27.55386246607552
 21
23.83816255745699
 31
0.0
  0
LWPOLYLINE
  5
1890
330
1F
100
AcDbEntity
  8
FLASHING
100
AcDbPolyline
 90
        6
 70
     0
 43
0.03125
 10
27.60655432029185
 20
22.67060739801332
 10
27.39437030396955
 20
22.45591038203281
 10
27.34343294357869
 20
22.48773517147191
 10
27.57132396055988
 20
22.71577435705661
 10
28.59507931587527
 20
22.71577435705661
 10
28.59507931587527
 20
25.42067860965776
  0
TEXT
  5
19CC
330
1F
100
AcDbEntity
  8
NOTES
100
AcDbText
 10
28.37310151248811
 20
25.41260146389618
 30
0.0
 40
0.116
  1
AIRFLOW / DRAINAGE CHAMBER
 50
90.0
  7
DETAILS
100
AcDbText
  0
LEADER
  5
1A6F
330
1F
100
AcDbEntity
  8
LEADERS
100
AcDbLeader
  3
Standard
 76
     2
 10
27.80386246607552
 20
23.33984263710934
 30
0.0
 10
25.79640133231776
 20
23.33900259728317
 30
0.0
1001
ACAD
1000
DSTYLE
1002
{
1070
   147
1040
0.09375
1070
    77
1070
     0
1070
    41
1040
0.3125
1070
    90
1070
     1
1002
}
  0
LEADER
  5
1A78
330
1F
100
AcDbEntity
  8
LEADERS
100
AcDbLeader
  3
Standard
 76
     3
 10
27.34343294357869
 20
22.48773517147191
 30
0.0
 10
26.593192480316
 20
22.3067888604741
 30
0.0
 10
26.03387609732233
 20
22.3067888604741
 30
0.0
1001
ACAD
1000
DSTYLE
1002
{
1070
   147
1040
0.09375
1070
    77
1070
     0
1070
    41
1040
0.3125
1070
    90
1070
     1
1002
}
  0
LINE
  5
1BD6
330
1F
100
AcDbEntity
  8
SCREW
  6
HIDDEN
 48
0.2
100
AcDbLine
 10
28.6658407809722
 20
24.01465604090533
 30
0.0
 11
28.64194600871962
 21
24.07080331634721
 31
0.0
  0
LINE
  5
1BD7
330
1F
100
AcDbEntity
  8
SCREW
  6
HIDDEN
 48
0.2
100
AcDbLine
 10
28.64936506089548
 20
24.00659780691516
 30
0.0
 11
28.64194619468014
 21
24.02403045370736
 31
0.0
  0
LINE
  5
1BD8
330
1F
100
AcDbEntity
  8
SCREW
  6
HIDDEN
 48
0.2
100
AcDbLine
 10
28.7189703302389
 20
24.01465604090533
 30
0.0
 11
28.67007943314266
 21
24.12953851966877
 31
0.0
  0
LINE
  5
1BD9
330
1F
100
AcDbEntity
  8
SCREW
  6
HIDDEN
 48
0.2
100
AcDbLine
 10
28.70249461016218
 20
24.00659780691516
 30
0.0
 11
28.65322660323204
 21
24.12236640794388
 31
0.0
  0
LINE
  5
1BDA
330
1F
100
AcDbEntity
  8
SCREW
  6
HIDDEN
 48
0.2
100
AcDbLine
 10
28.77209987950562
 20
24.01465604090533
 30
0.0
 11
28.72320898240937
 21
24.12953851966877
 31
0.0
  0
LINE
  5
1BDB
330
1F
100
AcDbEntity
  8
SCREW
  6
HIDDEN
 48
0.2
100
AcDbLine
 10
28.7556241594289
 20
24.00659780691516
 30
0.0
 11
28.70635615249874
 21
24.12236640794388
 31
0.0
  0
LINE
  5
1BDC
330
1F
100
AcDbEntity
  8
SCREW
  6
HIDDEN
 48
0.2
100
AcDbLine
 10
28.82522942877232
 20
24.01465604090533
 30
0.0
 11
28.77633853167608
 21
24.12953851966877
 31
0.0
  0
LINE
  5
1BDD
330
1F
100
AcDbEntity
  8
SCREW
  6
HIDDEN
 48
0.2
100
AcDbLine
 10
28.80875370869561
 20
24.00659780691516
 30
0.0
 11
28.75948570176547
 21
24.12236640794388
 31
0.0
  0
LINE
  5
1BDE
330
1F
100
AcDbEntity
  8
SCREW
  6
HIDDEN
 48
0.2
100
AcDbLine
 10
28.87835897803904
 20
24.01465604090533
 30
0.0
 11
28.8294680809428
 21
24.12953851966877
 31
0.0
  0
LINE
  5
1BDF
330
1F
100
AcDbEntity
  8
SCREW
  6
HIDDEN
 48
0.2
100
AcDbLine
 10
28.86188325796233
 20
24.00659780691516
 30
0.0
 11
28.81261525103216
 21
24.12236640794388
 31
0.0
  0
LINE
  5
1BE0
330
1F
100
AcDbEntity
  8
SCREW
  6
HIDDEN
 48
0.2
100
AcDbLine
 10
28.93148852730575
 20
24.01465604090533
 30
0.0
 11
28.8825976302095
 21
24.12953851966877
 31
0.0
  0
LINE
  5
1BE1
330
1F
100
AcDbEntity
  8
SCREW
  6
HIDDEN
 48
0.2
100
AcDbLine
 10
28.91501280722903
 20
24.00659780691516
 30
0.0
 11
28.86574480029888
 21
24.12236640794388
 31
0.0
  0
LINE
  5
1BE2
330
1F
100
AcDbEntity
  8
SCREW
  6
HIDDEN
 48
0.2
100
AcDbLine
 10
28.98461807657245
 20
24.01465604090533
 30
0.0
 11
28.93572717947622
 21
24.12953851966877
 31
0.0
  0
LINE
  5
1BE3
330
1F
100
AcDbEntity
  8
SCREW
  6
HIDDEN
 48
0.2
100
AcDbLine
 10
28.96814235649574
 20
24.00659780691516
 30
0.0
 11
28.91887434956559
 21
24.12236640794388
 31
0.0
  0
LINE
  5
1BE4
330
1F
100
AcDbEntity
  8
SCREW
  6
HIDDEN
 48
0.2
100
AcDbLine
 10
29.03774762583918
 20
24.01465604090533
 30
0.0
 11
28.98885672874293
 21
24.12953851966877
 31
0.0
  0
LINE
  5
1BE5
330
1F
100
AcDbEntity
  8
SCREW
  6
HIDDEN
 48
0.2
100
AcDbLine
 10
29.02127190576246
 20
24.00659780691516
 30
0.0
 11
28.9720038988323
 21
24.12236640794388
 31
0.0
  0
LINE
  5
1BE6
330
1F
100
AcDbEntity
  8
SCREW
  6
HIDDEN
 48
0.2
100
AcDbLine
 10
29.09087717510588
 20
24.01465604090533
 30
0.0
 11
29.04198627800964
 21
24.12953851966877
 31
0.0
  0
LINE
  5
1BE7
330
1F
100
AcDbEntity
  8
SCREW
  6
HIDDEN
 48
0.2
100
AcDbLine
 10
29.07440145502917
 20
24.00659780691516
 30
0.0
 11
29.02513344809902
 21
24.12236640794388
 31
0.0
  0
LINE
  5
1BE8
330
1F
100
AcDbEntity
  8
SCREW
  6
HIDDEN
 48
0.2
100
AcDbLine
 10
29.1440067243726
 20
24.01465604090533
 30
0.0
 11
29.09511582727635
 21
24.12953851966877
 31
0.0
  0
LINE
  5
1BE9
330
1F
100
AcDbEntity
  8
SCREW
  6
HIDDEN
 48
0.2
100
AcDbLine
 10
29.12753100429588
 20
24.00659780691516
 30
0.0
 11
29.07826299736572
 21
24.12236640794388
 31
0.0
  0
LINE
  5
1BEA
330
1F
100
AcDbEntity
  8
SCREW
  6
HIDDEN
 48
0.2
100
AcDbLine
 10
29.19713627363931
 20
24.01465604090533
 30
0.0
 11
29.14824537654307
 21
24.12953851966877
 31
0.0
  0
LINE
  5
1BEB
330
1F
100
AcDbEntity
  8
SCREW
  6
HIDDEN
 48
0.2
100
AcDbLine
 10
29.18066055356259
 20
24.00659780691516
 30
0.0
 11
29.13139254663244
 21
24.12236640794388
 31
0.0
  0
LINE
  5
1BEC
330
1F
100
AcDbEntity
  8
SCREW
  6
HIDDEN
 48
0.2
100
AcDbLine
 10
29.25026582290602
 20
24.01465604090533
 30
0.0
 11
29.20137492580977
 21
24.12953851966877
 31
0.0
  0
LINE
  5
1BED
330
1F
100
AcDbEntity
  8
SCREW
  6
HIDDEN
 48
0.2
100
AcDbLine
 10
29.2337901028293
 20
24.00659780691516
 30
0.0
 11
29.18452209589915
 21
24.12236640794388
 31
0.0
  0
LINE
  5
1BEE
330
1F
100
AcDbEntity
  8
SCREW
  6
HIDDEN
 48
0.2
100
AcDbLine
 10
29.30339537217273
 20
24.01465604090533
 30
0.0
 11
29.25450447507648
 21
24.12953851966877
 31
0.0
  0
LINE
  5
1BEF
330
1F
100
AcDbEntity
  8
SCREW
  6
HIDDEN
 48
0.2
100
AcDbLine
 10
29.28691965209601
 20
24.00659780691516
 30
0.0
 11
29.23765164516586
 21
24.12236640794388
 31
0.0
  0
LINE
  5
1BF0
330
1F
100
AcDbEntity
  8
SCREW
  6
HIDDEN
 48
0.2
100
AcDbLine
 10
29.35652492143944
 20
24.01465604090533
 30
0.0
 11
29.30763402434319
 21
24.12953851966877
 31
0.0
  0
LINE
  5
1BF1
330
1F
100
AcDbEntity
  8
SCREW
  6
HIDDEN
 48
0.2
100
AcDbLine
 10
29.34004920136273
 20
24.00659780691516
 30
0.0
 11
29.29078119443257
 21
24.12236640794388
 31
0.0
  0
LINE
  5
1BF2
330
1F
100
AcDbEntity
  8
SCREW
  6
HIDDEN
 48
0.2
100
AcDbLine
 10
29.40965447070615
 20
24.01465604090533
 30
0.0
 11
29.36076357360991
 21
24.12953851966877
 31
0.0
  0
LINE
  5
1BF3
330
1F
100
AcDbEntity
  8
SCREW
  6
HIDDEN
 48
0.2
100
AcDbLine
 10
29.39317875062944
 20
24.00659780691516
 30
0.0
 11
29.34391074369928
 21
24.12236640794388
 31
0.0
  0
LINE
  5
1BF4
330
1F
100
AcDbEntity
  8
SCREW
  6
HIDDEN
 48
0.2
100
AcDbLine
 10
28.64194620855862
 20
24.02053973307656
 30
0.0
 11
28.64343175161614
 21
24.02053973307656
 31
0.0
  0
LINE
  5
1BF5
330
1F
100
AcDbEntity
  8
SCREW
  6
HIDDEN
 48
0.2
100
AcDbLine
 10
28.66333683962633
 20
24.02053973307656
 30
0.0
 11
28.69656130088286
 21
24.02053973307656
 31
0.0
  0
ARC
  5
1BF6
330
1F
100
AcDbEntity
  8
SCREW
  6
HIDDEN
 48
0.2
100
AcDbCircle
 10
28.65760292093384
 20
24.01062692391024
 30
0.0
 40
0.0091703937631727
100
AcDbArc
 50
200.0434587331201
 51
26.06314271735307
  0
LINE
  5
1BF7
330
1F
100
AcDbEntity
  8
SCREW
  6
HIDDEN
 48
0.2
100
AcDbLine
 10
28.65231176902942
 20
24.12582604280417
 30
0.0
 11
28.64194578995912
 21
24.12582604280417
 31
0.0
  0
ARC
  5
1BF8
330
1F
100
AcDbEntity
  8
SCREW
  6
HIDDEN
 48
0.2
100
AcDbCircle
 10
28.71073247020055
 20
24.01062692391024
 30
0.0
 40
0.0091703937631727
100
AcDbArc
 50
200.0434587331201
 51
26.06314271735307
  0
ARC
  5
1BF9
330
1F
100
AcDbEntity
  8
SCREW
  6
HIDDEN
 48
0.2
100
AcDbCircle
 10
28.66146446327046
 20
24.12639552493884
 30
0.0
 40
0.0091703937631727
100
AcDbArc
 50
20.0434587308118
 51
206.0631427159179
  0
LINE
  5
1BFA
330
1F
100
AcDbEntity
  8
SCREW
  6
HIDDEN
 48
0.2
100
AcDbLine
 10
28.71646638889305
 20
24.02053973307656
 30
0.0
 11
28.74969085014956
 21
24.02053973307656
 31
0.0
  0
LINE
  5
1BFB
330
1F
100
AcDbEntity
  8
SCREW
  6
HIDDEN
 48
0.2
100
AcDbLine
 10
28.70544131829612
 20
24.12582604280417
 30
0.0
 11
28.67165936357515
 21
24.12582604280418
 31
0.0
  0
ARC
  5
1BFC
330
1F
100
AcDbEntity
  8
SCREW
  6
HIDDEN
 48
0.2
100
AcDbCircle
 10
28.76386201946726
 20
24.01062692391024
 30
0.0
 40
0.0091703937631727
100
AcDbArc
 50
200.0434587331201
 51
26.06314271735307
  0
ARC
  5
1BFD
330
1F
100
AcDbEntity
  8
SCREW
  6
HIDDEN
 48
0.2
100
AcDbCircle
 10
28.71459401253716
 20
24.12639552493884
 30
0.0
 40
0.0091703937631727
100
AcDbArc
 50
20.0434587308118
 51
206.0631427159179
  0
LINE
  5
1BFE
330
1F
100
AcDbEntity
  8
SCREW
  6
HIDDEN
 48
0.2
100
AcDbLine
 10
28.76959593815976
 20
24.02053973307656
 30
0.0
 11
28.80282039941628
 21
24.02053973307656
 31
0.0
  0
LINE
  5
1BFF
330
1F
100
AcDbEntity
  8
SCREW
  6
HIDDEN
 48
0.2
100
AcDbLine
 10
28.75857086756283
 20
24.12582604280417
 30
0.0
 11
28.72478891284187
 21
24.12582604280418
 31
0.0
  0
ARC
  5
1C00
330
1F
100
AcDbEntity
  8
SCREW
  6
HIDDEN
 48
0.2
100
AcDbCircle
 10
28.81699156873398
 20
24.01062692391024
 30
0.0
 40
0.0091703937631727
100
AcDbArc
 50
200.0434587331201
 51
26.06314271735307
  0
ARC
  5
1C01
330
1F
100
AcDbEntity
  8
SCREW
  6
HIDDEN
 48
0.2
100
AcDbCircle
 10
28.76772356180387
 20
24.12639552493884
 30
0.0
 40
0.0091703937631727
100
AcDbArc
 50
20.0434587308118
 51
206.0631427159179
  0
LINE
  5
1C02
330
1F
100
AcDbEntity
  8
SCREW
  6
HIDDEN
 48
0.2
100
AcDbLine
 10
28.82272548742648
 20
24.02053973307656
 30
0.0
 11
28.85594994868299
 21
24.02053973307656
 31
0.0
  0
LINE
  5
1C03
330
1F
100
AcDbEntity
  8
SCREW
  6
HIDDEN
 48
0.2
100
AcDbLine
 10
28.81170041682955
 20
24.12582604280417
 30
0.0
 11
28.77791846210858
 21
24.12582604280418
 31
0.0
  0
ARC
  5
1C04
330
1F
100
AcDbEntity
  8
SCREW
  6
HIDDEN
 48
0.2
100
AcDbCircle
 10
28.87012111800068
 20
24.01062692391024
 30
0.0
 40
0.0091703937631727
100
AcDbArc
 50
200.0434587331201
 51
26.06314271735307
  0
ARC
  5
1C05
330
1F
100
AcDbEntity
  8
SCREW
  6
HIDDEN
 48
0.2
100
AcDbCircle
 10
28.82085311107058
 20
24.12639552493884
 30
0.0
 40
0.0091703937631727
100
AcDbArc
 50
20.0434587308118
 51
206.0631427159179
  0
LINE
  5
1C06
330
1F
100
AcDbEntity
  8
SCREW
  6
HIDDEN
 48
0.2
100
AcDbLine
 10
28.87585503669318
 20
24.02053973307656
 30
0.0
 11
28.9090794979497
 21
24.02053973307656
 31
0.0
  0
LINE
  5
1C07
330
1F
100
AcDbEntity
  8
SCREW
  6
HIDDEN
 48
0.2
100
AcDbLine
 10
28.86482996609626
 20
24.12582604280417
 30
0.0
 11
28.83104801137528
 21
24.12582604280418
 31
0.0
  0
ARC
  5
1C08
330
1F
100
AcDbEntity
  8
SCREW
  6
HIDDEN
 48
0.2
100
AcDbCircle
 10
28.92325066726739
 20
24.01062692391024
 30
0.0
 40
0.0091703937631727
100
AcDbArc
 50
200.0434587331201
 51
26.06314271735279
  0
ARC
  5
1C09
330
1F
100
AcDbEntity
  8
SCREW
  6
HIDDEN
 48
0.2
100
AcDbCircle
 10
28.87398266033729
 20
24.12639552493884
 30
0.0
 40
0.0091703937631727
100
AcDbArc
 50
20.0434587308118
 51
206.0631427159179
  0
LINE
  5
1C0A
330
1F
100
AcDbEntity
  8
SCREW
  6
HIDDEN
 48
0.2
100
AcDbLine
 10
28.9289845859599
 20
24.02053973307656
 30
0.0
 11
28.96220904721641
 21
24.02053973307656
 31
0.0
  0
LINE
  5
1C0B
330
1F
100
AcDbEntity
  8
SCREW
  6
HIDDEN
 48
0.2
100
AcDbLine
 10
28.91795951536297
 20
24.12582604280417
 30
0.0
 11
28.884177560642
 21
24.12582604280418
 31
0.0
  0
ARC
  5
1C0C
330
1F
100
AcDbEntity
  8
SCREW
  6
HIDDEN
 48
0.2
100
AcDbCircle
 10
28.9763802165341
 20
24.01062692391024
 30
0.0
 40
0.0091703937631727
100
AcDbArc
 50
200.0434587331201
 51
26.06314271735279
  0
ARC
  5
1C0D
330
1F
100
AcDbEntity
  8
SCREW
  6
HIDDEN
 48
0.2
100
AcDbCircle
 10
28.92711220960401
 20
24.12639552493884
 30
0.0
 40
0.0091703937631727
100
AcDbArc
 50
20.0434587308118
 51
206.0631427159179
  0
LINE
  5
1C0E
330
1F
100
AcDbEntity
  8
SCREW
  6
HIDDEN
 48
0.2
100
AcDbLine
 10
28.9821141352266
 20
24.02053973307656
 30
0.0
 11
29.01533859648313
 21
24.02053973307656
 31
0.0
  0
LINE
  5
1C0F
330
1F
100
AcDbEntity
  8
SCREW
  6
HIDDEN
 48
0.2
100
AcDbLine
 10
28.97108906462968
 20
24.12582604280417
 30
0.0
 11
28.93730710990871
 21
24.12582604280418
 31
0.0
  0
ARC
  5
1C10
330
1F
100
AcDbEntity
  8
SCREW
  6
HIDDEN
 48
0.2
100
AcDbCircle
 10
29.02950976580081
 20
24.01062692391024
 30
0.0
 40
0.0091703937631727
100
AcDbArc
 50
200.0434587331201
 51
26.06314271735279
  0
ARC
  5
1C11
330
1F
100
AcDbEntity
  8
SCREW
  6
HIDDEN
 48
0.2
100
AcDbCircle
 10
28.98024175887071
 20
24.12639552493884
 30
0.0
 40
0.0091703937631727
100
AcDbArc
 50
20.0434587308118
 51
206.0631427159179
  0
LINE
  5
1C12
330
1F
100
AcDbEntity
  8
SCREW
  6
HIDDEN
 48
0.2
100
AcDbLine
 10
29.03524368449332
 20
24.02053973307656
 30
0.0
 11
29.06846814574984
 21
24.02053973307656
 31
0.0
  0
LINE
  5
1C13
330
1F
100
AcDbEntity
  8
SCREW
  6
HIDDEN
 48
0.2
100
AcDbLine
 10
29.02421861389639
 20
24.12582604280417
 30
0.0
 11
28.99043665917542
 21
24.12582604280418
 31
0.0
  0
ARC
  5
1C14
330
1F
100
AcDbEntity
  8
SCREW
  6
HIDDEN
 48
0.2
100
AcDbCircle
 10
29.08263931506753
 20
24.01062692391024
 30
0.0
 40
0.0091703937631727
100
AcDbArc
 50
200.0434587331201
 51
26.06314271735279
  0
ARC
  5
1C15
330
1F
100
AcDbEntity
  8
SCREW
  6
HIDDEN
 48
0.2
100
AcDbCircle
 10
29.03337130813742
 20
24.12639552493884
 30
0.0
 40
0.0091703937631727
100
AcDbArc
 50
20.0434587308118
 51
206.0631427159179
  0
LINE
  5
1C16
330
1F
100
AcDbEntity
  8
SCREW
  6
HIDDEN
 48
0.2
100
AcDbLine
 10
29.08837323376003
 20
24.02053973307656
 30
0.0
 11
29.12159769501654
 21
24.02053973307656
 31
0.0
  0
LINE
  5
1C17
330
1F
100
AcDbEntity
  8
SCREW
  6
HIDDEN
 48
0.2
100
AcDbLine
 10
29.0773481631631
 20
24.12582604280417
 30
0.0
 11
29.04356620844213
 21
24.12582604280418
 31
0.0
  0
ARC
  5
1C18
330
1F
100
AcDbEntity
  8
SCREW
  6
HIDDEN
 48
0.2
100
AcDbCircle
 10
29.13576886433423
 20
24.01062692391024
 30
0.0
 40
0.0091703937631727
100
AcDbArc
 50
200.0434587331201
 51
26.06314271735279
  0
ARC
  5
1C19
330
1F
100
AcDbEntity
  8
SCREW
  6
HIDDEN
 48
0.2
100
AcDbCircle
 10
29.08650085740414
 20
24.12639552493884
 30
0.0
 40
0.0091703937631727
100
AcDbArc
 50
20.0434587308118
 51
206.0631427159179
  0
LINE
  5
1C1A
330
1F
100
AcDbEntity
  8
SCREW
  6
HIDDEN
 48
0.2
100
AcDbLine
 10
29.14150278302674
 20
24.02053973307656
 30
0.0
 11
29.17472724428326
 21
24.02053973307656
 31
0.0
  0
LINE
  5
1C1B
330
1F
100
AcDbEntity
  8
SCREW
  6
HIDDEN
 48
0.2
100
AcDbLine
 10
29.13047771242982
 20
24.12582604280417
 30
0.0
 11
29.09669575770884
 21
24.12582604280418
 31
0.0
  0
ARC
  5
1C1C
330
1F
100
AcDbEntity
  8
SCREW
  6
HIDDEN
 48
0.2
100
AcDbCircle
 10
29.18889841360094
 20
24.01062692391024
 30
0.0
 40
0.0091703937631727
100
AcDbArc
 50
200.0434587331201
 51
26.06314271735279
  0
ARC
  5
1C1D
330
1F
100
AcDbEntity
  8
SCREW
  6
HIDDEN
 48
0.2
100
AcDbCircle
 10
29.13963040667086
 20
24.12639552493884
 30
0.0
 40
0.0091703937631727
100
AcDbArc
 50
20.0434587308118
 51
206.0631427159179
  0
LINE
  5
1C1E
330
1F
100
AcDbEntity
  8
SCREW
  6
HIDDEN
 48
0.2
100
AcDbLine
 10
29.19463233229346
 20
24.02053973307656
 30
0.0
 11
29.22785679354997
 21
24.02053973307656
 31
0.0
  0
LINE
  5
1C1F
330
1F
100
AcDbEntity
  8
SCREW
  6
HIDDEN
 48
0.2
100
AcDbLine
 10
29.18360726169653
 20
24.12582604280417
 30
0.0
 11
29.14982530697555
 21
24.12582604280418
 31
0.0
  0
ARC
  5
1C20
330
1F
100
AcDbEntity
  8
SCREW
  6
HIDDEN
 48
0.2
100
AcDbCircle
 10
29.24202796286766
 20
24.01062692391024
 30
0.0
 40
0.0091703937631727
100
AcDbArc
 50
200.0434587331201
 51
26.06314271735279
  0
ARC
  5
1C21
330
1F
100
AcDbEntity
  8
SCREW
  6
HIDDEN
 48
0.2
100
AcDbCircle
 10
29.19275995593757
 20
24.12639552493884
 30
0.0
 40
0.0091703937631727
100
AcDbArc
 50
20.0434587308118
 51
206.0631427159179
  0
LINE
  5
1C22
330
1F
100
AcDbEntity
  8
SCREW
  6
HIDDEN
 48
0.2
100
AcDbLine
 10
29.24776188156016
 20
24.02053973307656
 30
0.0
 11
29.28098634281668
 21
24.02053973307656
 31
0.0
  0
LINE
  5
1C23
330
1F
100
AcDbEntity
  8
SCREW
  6
HIDDEN
 48
0.2
100
AcDbLine
 10
29.23673681096323
 20
24.12582604280417
 30
0.0
 11
29.20295485624226
 21
24.12582604280418
 31
0.0
  0
ARC
  5
1C24
330
1F
100
AcDbEntity
  8
SCREW
  6
HIDDEN
 48
0.2
100
AcDbCircle
 10
29.29515751213438
 20
24.01062692391024
 30
0.0
 40
0.0091703937631727
100
AcDbArc
 50
200.0434587331201
 51
26.06314271735279
  0
ARC
  5
1C25
330
1F
100
AcDbEntity
  8
SCREW
  6
HIDDEN
 48
0.2
100
AcDbCircle
 10
29.24588950520427
 20
24.12639552493884
 30
0.0
 40
0.0091703937631727
100
AcDbArc
 50
20.0434587308118
 51
206.0631427159179
  0
LINE
  5
1C26
330
1F
100
AcDbEntity
  8
SCREW
  6
HIDDEN
 48
0.2
100
AcDbLine
 10
29.30089143082687
 20
24.02053973307656
 30
0.0
 11
29.3341158920834
 21
24.02053973307656
 31
0.0
  0
LINE
  5
1C27
330
1F
100
AcDbEntity
  8
SCREW
  6
HIDDEN
 48
0.2
100
AcDbLine
 10
29.28986636022995
 20
24.12582604280417
 30
0.0
 11
29.25608440550898
 21
24.12582604280418
 31
0.0
  0
ARC
  5
1C28
330
1F
100
AcDbEntity
  8
SCREW
  6
HIDDEN
 48
0.2
100
AcDbCircle
 10
29.34828706140109
 20
24.01062692391024
 30
0.0
 40
0.0091703937631727
100
AcDbArc
 50
200.0434587331201
 51
26.06314271735279
  0
ARC
  5
1C29
330
1F
100
AcDbEntity
  8
SCREW
  6
HIDDEN
 48
0.2
100
AcDbCircle
 10
29.29901905447099
 20
24.12639552493884
 30
0.0
 40
0.0091703937631727
100
AcDbArc
 50
20.0434587308118
 51
206.0631427159179
  0
LINE
  5
1C2A
330
1F
100
AcDbEntity
  8
SCREW
  6
HIDDEN
 48
0.2
100
AcDbLine
 10
29.35402098009359
 20
24.02053973307656
 30
0.0
 11
29.38724544135011
 21
24.02053973307656
 31
0.0
  0
LINE
  5
1C2B
330
1F
100
AcDbEntity
  8
SCREW
  6
HIDDEN
 48
0.2
100
AcDbLine
 10
29.34299590949666
 20
24.12582604280417
 30
0.0
 11
29.30921395477568
 21
24.12582604280418
 31
0.0
  0
ARC
  5
1C2C
330
1F
100
AcDbEntity
  8
SCREW
  6
HIDDEN
 48
0.2
100
AcDbCircle
 10
29.40141661066779
 20
24.01062692391024
 30
0.0
 40
0.0091703937631727
100
AcDbArc
 50
200.0434587331201
 51
26.06314271735279
  0
ARC
  5
1C2D
330
1F
100
AcDbEntity
  8
SCREW
  6
HIDDEN
 48
0.2
100
AcDbCircle
 10
29.3521486037377
 20
24.12639552493884
 30
0.0
 40
0.0091703937631727
100
AcDbArc
 50
20.0434587308118
 51
206.0631427159179
  0
LINE
  5
1C2E
330
1F
100
AcDbEntity
  8
SCREW
  6
HIDDEN
 48
0.2
100
AcDbLine
 10
28.57267360277579
 20
23.94839753249908
 30
0.0
 11
28.57267360277579
 21
24.1880554342153
 31
0.0
  0
LINE
  5
1C2F
330
1F
100
AcDbEntity
  8
SCREW
  6
HIDDEN
 48
0.2
100
AcDbLine
 10
28.57267360277579
 20
23.94839753249908
 30
0.0
 11
28.59507931587528
 21
23.94839753249908
 31
0.0
  0
ARC
  5
1C30
330
1F
100
AcDbEntity
  8
SCREW
  6
HIDDEN
 48
0.2
100
AcDbCircle
 10
28.6764680415747
 20
24.06822648335719
 30
0.0
 40
0.1585315835703886
100
AcDbArc
 50
130.8987284874719
 51
229.1012715124085
  0
LINE
  5
1C31
330
1F
100
AcDbEntity
  8
SCREW
  6
HIDDEN
 48
0.2
100
AcDbLine
 10
28.57267360277579
 20
24.1880554342153
 30
0.0
 11
28.59507931587528
 21
24.1880554342153
 31
0.0
  0
ARC
  5
1C32
330
1F
100
AcDbEntity
  8
SCREW
  6
HIDDEN
 48
0.2
100
AcDbCircle
 10
29.51005637487137
 20
24.06935494270097
 30
0.0
 40
0.0120950817970739
100
AcDbArc
 50
0.0
 51
90.0000000000171
  0
ARC
  5
1C33
330
1F
100
AcDbEntity
  8
SCREW
  6
HIDDEN
 48
0.2
100
AcDbCircle
 10
29.59376521340869
 20
23.65986642484909
 30
0.0
 40
0.4061141621129565
100
AcDbArc
 50
101.8951553356812
 51
117.0150992582615
  0
ARC
  5
1C34
330
1F
100
AcDbEntity
  8
SCREW
  6
HIDDEN
 48
0.2
100
AcDbCircle
 10
29.51005637487137
 20
24.06935494270097
 30
0.0
 40
0.0120950817970739
100
AcDbArc
 50
269.9999999999829
 51
0.0
  0
ARC
  5
1C35
330
1F
100
AcDbEntity
  8
SCREW
  6
HIDDEN
 48
0.2
100
AcDbCircle
 10
29.59376521340869
 20
24.47884346055284
 30
0.0
 40
0.4061141621129565
100
AcDbArc
 50
240.0518963641911
 51
258.1048446643184
  0
LINE
  5
1C36
330
1F
100
AcDbEntity
  8
SCREW
  6
HIDDEN
 48
0.2
100
AcDbLine
 10
29.3910267769411
 20
24.12695450214791
 30
0.0
 11
29.36221557628781
 21
24.12695450214792
 31
0.0
  0
LINE
  5
1C37
330
1F
100
AcDbEntity
  8
SCREW
  6
HIDDEN
 48
0.2
100
AcDbLine
 10
29.40702260160572
 20
24.02166819242032
 30
0.0
 11
29.40929788933463
 21
24.02166819242032
 31
0.0
  0
LINE
  5
1CBB
330
1F
100
AcDbEntity
  8
NOTES
100
AcDbLine
 10
28.70467714228223
 20
22.78659919625369
 30
0.0
 11
29.26506624242735
 21
22.78659919625369
 31
0.0
  0
LINE
  5
1CBC
330
1F
100
AcDbEntity
  8
NOTES
100
AcDbLine
 10
29.19940550931069
 20
22.72144925902025
 30
0.0
 11
29.19940550931069
 21
23.67901770874595
 31
0.0
  0
INSERT
  5
1CBD
330
1F
100
AcDbEntity
  8
NOTES
100
AcDbBlockReference
  2
_ArchTick
 10
29.19940550931069
 20
23.5898427198485
 30
0.0
 41
0.0625
 42
0.0625
 43
0.0625
 50
90.0
  0
TEXT
  5
1CBE
330
1F
100
AcDbEntity
  8
NOTES
100
AcDbText
 10
29.35925885445209
 20
22.82434279819082
 30
0.0
 40
0.13
  1
(19 mm)
 50
90.0
  7
DETAILS
100
AcDbText
  0
TEXT
  5
1CBF
330
1F
100
AcDbEntity
  8
NOTES
100
AcDbText
 10
29.15924852001639
 20
22.82732359485976
 30
0.0
 40
0.13
  1
3/4" MIN.
 50
90.0
  7
DETAILS
100
AcDbText
  0
INSERT
  5
1CC0
330
1F
100
AcDbEntity
  8
NOTES
100
AcDbBlockReference
  2
_ArchTick
 10
29.19940550931069
 20
22.78659919625369
 30
0.0
 41
0.0625
 42
0.0625
 43
0.0625
 50
270.0
  0
LINE
  5
1CC1
330
1F
100
AcDbEntity
  8
NOTES
100
AcDbLine
 10
28.70467714228223
 20
23.5898427198485
 30
0.0
 11
29.26506624242735
 21
23.5898427198485
 31
0.0
  0
LINE
  5
1D62
330
1F
100
AcDbEntity
  8
WALL CONSTRUCTION
100
AcDbLine
 10
29.19940550931069
 20
21.67291976512051
 30
0.0
 11
29.1994055093107
 21
16.95518805558933
 31
0.0
  0
LINE
  5
1D63
330
1F
100
AcDbEntity
  8
WALL CONSTRUCTION
100
AcDbLine
 10
29.19940550931069
 20
21.67291976512051
 30
0.0
 11
29.1994055093107
 21
17.50137844571277
 31
0.0
  0
LWPOLYLINE
  5
1D64
330
1F
100
AcDbEntity
  8
A-DE-35
  6
Continuous
100
AcDbPolyline
 90
        2
 70
     0
 43
0.0
 10
30.63656223905243
 20
28.33050421272267
 10
30.63656223905243
 20
23.48181589846214
  0
TEXT
  5
1E9F
330
1F
100
AcDbEntity
  8
NOTES
100
AcDbText
 10
29.47876428539474
 20
23.30283582324848
 30
0.0
 40
0.13
  1
3/4" GAP PROVIDED
  7
DETAILS
100
AcDbText
  0
TEXT
  5
1EA0
330
1F
100
AcDbEntity
  8
NOTES
100
AcDbText
 10
29.47876428539474
 20
23.09462563161174
 30
0.0
 40
0.13
  1
BY TEMPORARY 
  7
DETAILS
100
AcDbText
  0
TEXT
  5
1EA1
330
1F
100
AcDbEntity
  8
NOTES
100
AcDbText
 10
29.47876428539474
 20
22.88371046769877
 30
0.0
 40
0.13
  1
SPACER 
  7
DETAILS
100
AcDbText
  0
LINE
  5
1EC4
330
1F
100
AcDbEntity
  8
NOTES
100
AcDbLine
 10
29.78249167430357
 20
23.48181589846214
 30
0.0
 11
29.78249167430357
 21
24.72599498812765
 31
0.0
  0
LWPOLYLINE
  5
1ECB
330
1F
100
AcDbEntity
  8
A-DE-35
  6
Continuous
100
AcDbPolyline
 90
        6
 70
     0
 43
0.0
 10
30.63656223905243
 20
23.05381148080098
 10
30.63656223905243
 20
21.19934766004113
 10
30.55070356969447
 20
21.16809766004113
 10
30.72242090841038
 20
21.10559766004113
 10
30.63656223905243
 20
21.07434766004113
 10
30.63672248014212
 20
15.75539217443587
  0
VIEWPORT
  5
290
102
{ACAD_XDICTIONARY
360
291
102
}
330
58
100
AcDbEntity
 67
     1
  8
0
100
AcDbViewport
 10
4.060695416371467
 20
5.313786209262461
 30
0.0
 40
21.35884691959964
 41
10.05866041692663
 68
     1
 69
     1
 12
4.060695416371467
 22
5.313786209262461
 13
0.0
 23
0.0
 14
0.5
 24
0.5
 15
0.5
 25
0.5
 16
0.0
 26
0.0
 36
1.0
 17
0.0
 27
0.0
 37
0.0
 42
50.0
 43
0.0
 44
0.0
 45
10.05866041692663
 50
0.0
 51
0.0
 72
  1000
 90
   819232
  1

281
     0
 71
     1
 74
     0
110
0.0
120
0.0
130
0.0
111
1.0
121
0.0
131
0.0
112
0.0
122
1.0
132
0.0
 79
     0
146
0.0
170
     0
 61
     5
348
9F
292
     1
282
     1
141
0.0
142
0.0
 63
   250
421
  3355443
  0
MTEXT
  5
412
330
58
100
AcDbEntity
 67
     1
  8
0
100
AcDbMText
 10
1.454878486923803
 20
0.4350098133260048
 30
0.0
 40
0.0781
 41
6.816532178661475
 46
0.0
 71
     1
 72
     5
  1
GLEN-GERY 423 S. POTTSVILLE PIKE SHOEMAKERSVILLE, PA 19555 800-854-4780, 610-562-3418 WWW.GLENGERY.COM
 73
     1
 44
1.0
101
Embedded Object
 70
     1
 10
1.0
 20
0.0
 30
0.0
 11
1.454878486923803
 21
0.4350098133260048
 31
0.0
 40
6.816532178661475
 41
0.0
 42
6.292483969986357
 43
0.0949346521145976
 71
     2
 72
     1
 44
6.816532178661475
 45
1.0
 73
     0
 74
     0
 46
0.0
  0
LINE
  5
41F
330
58
100
AcDbEntity
 67
     1
  8
title block
100
AcDbLine
 10
0.3093712765375702
 20
1.039359969887585
 30
0.0
 11
7.808747164444637
 21
1.039359969887585
 31
0.0
  0
LINE
  5
420
330
58
100
AcDbEntity
 67
     1
  8
title block
100
AcDbLine
 10
7.808747164444637
 20
1.101859969887585
 30
0.0
 11
0.3093692292309651
 21
1.101859969887587
 31
0.0
  0
TEXT
  5
59C
330
58
100
AcDbEntity
 67
     1
  8
SCALE
 62
     0
100
AcDbText
 10
0.3420461485385483
 20
0.348480956890576
 30
0.0
 40
0.0781
  1
SCALE : 
  7
DETAILS
100
AcDbText
1001
ACDBBLOCKREPETAG
1070
     1
1071
       17
1005
0
  0
TEXT
  5
5A6
330
58
100
AcDbEntity
 67
     1
  8
TITLE
100
AcDbText
 10
7.183175825138075
 20
1.150765642644953
 30
0.0
 40
0.165
  1
ELITE
  7
DETAILS
100
AcDbText
  0
TEXT
  5
5B8
330
58
100
AcDbEntity
 67
     1
  8
NOTES
100
AcDbText
 10
0.3856929828956623
 20
0.8428754443990484
 30
0.0
 40
0.09375
  1
NOTE: FASTENER PENETRATION - WOOD STUD- 1 1/4" MIN., STEEL STUD - 3 THREADS MIN., CONCRETE - 1" MIN. 
  7
DETAILS
100
AcDbText
  0
TEXT
  5
5CF
330
58
100
AcDbEntity
 67
     1
  8
TITLE
100
AcDbText
 10
0.4104990075006825
 20
1.172610078203875
 30
0.0
 40
0.165
  1
ROOF TRANSITION WITH KICK OUT FLASHING
  7
DETAILS
100
AcDbText
  0
VIEWPORT
  5
9A0
102
{ACAD_XDICTIONARY
360
9A1
102
}
330
58
100
AcDbEntity
 67
     1
  8
viewports
100
AcDbViewport
 10
4.059102840112799
 20
5.992626912785659
 30
0.0
 40
7.499407032406322
 41
8.630907639953804
 68
     2
 69
     2
 12
26.18945963476483
 22
22.28509241527913
 13
0.0
 23
0.0
 14
0.5
 24
0.5
 15
0.5
 25
0.5
 16
0.0
 26
0.0
 36
1.0
 17
0.0
 27
0.0
 37
0.0
 42
50.0
 43
0.0
 44
0.0
 45
12.94636145629896
 50
0.0
 51
0.0
 72
  1000
 90
   819296
  1

281
     0
 71
     1
 74
     0
110
0.0
120
0.0
130
0.0
111
1.0
121
0.0
131
0.0
112
0.0
122
1.0
132
0.0
 79
     0
146
0.0
170
     0
 61
     5
348
9F
292
     1
282
     1
141
0.0
142
0.0
 63
   250
421
  3355443
1001
GENIUS_GENODEF_13
1002
{
1000
HIER
1070
     0
1002
}
1002
{
1000
MANEDIT
1070
     0
1002
}
1002
{
1000
NOSEL
1070
     0
1002
}
1002
{
1000
BEHIND
1070
     0
1002
}
1002
{
1000
OTHER
1070
     0
1002
}
1002
{
1000
REACTOR
1002
}
1001
GENIUS_GENOBJ-N-SDF_13
1002
{
1000
OWNER
1000
GEN
1002
}
1001
GENIUS_GENSCREG_15
1000
PF
1040
1.0
1000
DF
1040
1.0
1000
MIN
1011
0.3093993239096386
1021
1.677173092808757
1031
0.0
1000
MAX
1011
7.808806356315961
1021
10.30808073276256
1031
0.0
1000
FLAGS
1070
     4
  0
LINE
  5
A35
330
58
100
AcDbEntity
 67
     1
  8
0
100
AcDbLine
 10
0.3093988565626911
 20
0.4533015212193235
 30
0.0
 11
7.808774086590014
 21
0.4533015212193235
 31
0.0
  0
MTEXT
  5
E3B
102
{ACAD_XDICTIONARY
360
E3C
102
}
330
58
100
AcDbEntity
 67
     1
  8
SCALE
100
AcDbMText
 10
0.7915178468915798
 20
0.4210250013182808
 30
0.0
 40
0.0781
 41
0.6021203030946581
 46
0.0
 71
     1
 72
     5
  1
1"-1.5"
 73
     1
 44
1.0
101
Embedded Object
 70
     1
 10
1.0
 20
0.0
 30
0.0
 11
0.7915178468915798
 21
0.4210250013182808
 31
0.0
 40
0.6021203030946581
 41
0.0
 42
0.309150272851296
 43
0.0797515006821283
 71
     2
 72
     1
 44
0.6021203030946581
 45
1.0
 73
     0
 74
     0
 46
0.0
  0
IMAGE
  5
2054
330
58
100
AcDbEntity
 67
     1
  8
logos
160
               140
310
8C000000010000008400000006000000050000008F2B66D232CDD33F24C7A174FF1B23400000000000000000902B66D232CDD33F607CFFC1BC9D244000000000000000000F215F6F12700540607CFFC1BC9D244000000000000000000F215F6F1270054024C7A174FF1B234000000000000000008F2B66D232CDD33F24C7A1
310
74FF1B23400000000000000000
100
AcDbRasterImage
 90
        0
 10
0.3093993239096386
 20
9.554683346508291
 30
0.0
 11
0.001251490674841
 21
0.0
 31
0.0
 12
0.0
 22
0.001251490674841
 32
0.0
 13
1894.0
 23
602.0
340
2052
 70
     7
280
     0
281
    50
282
    50
283
     0
290
     0
360
2053
 71
     1
 91
        2
 14
-0.5
 24
-0.5
 14
1893.5
 24
601.5
  0
ENDSEC
  0
SECTION
  2
OBJECTS
  0
DICTIONARY
  5
C
330
0
100
AcDbDictionary
281
     1
  3
ACAD_BGPLOT_KEY
350
A93
  3
ACAD_CIP_PREVIOUS_PRODUCT_INFO
350
1A5
  3
ACAD_COLOR
350
73
  3
ACAD_DETAILVIEWSTYLE
350
1AB
  3
ACAD_FIELDLIST
350
278
  3
ACAD_GROUP
350
D
  3
ACAD_IMAGE_DICT
350
5A7
  3
ACAD_IMAGE_VARS
350
5A8
  3
ACAD_LAYOUT
350
1A
  3
ACAD_MATERIAL
350
72
  3
ACAD_MLEADERSTYLE
350
D7
  3
ACAD_MLINESTYLE
350
17
  3
ACAD_PLOTSETTINGS
350
19
  3
ACAD_PLOTSTYLENAME
350
E
  3
ACAD_RENDER_RAPIDRT_SETTINGS
350
9A3
  3
ACAD_SCALELIST
350
B6
  3
ACAD_SECTIONVIEWSTYLE
350
1A8
  3
ACAD_TABLESTYLE
350
86
  3
ACAD_VISUALSTYLE
350
99
  3
ACDB_RECOMPOSE_DATA
350
207C
  3
AcDbVariableDictionary
350
66
  3
ACGREF_MASTER
350
21E
  3
ACGREFACAD_MASTER
350
222
  3
AcmDictionary
350
23A
  3
ACME_COMMAND_HISTORY
350
216
  3
ACME_SCOPE_NAME
350
215
  3
ACMESTATEMGR
350
219
  3
AcmeSysVarManager
350
217
  3
AcmSystemVariableManager
350
227
  3
AMG
350
20E
  3
AMGSNAPSETTINGS
350
406
  3
AMI_MASTER
350
223
  3
AUTOCAD_ASSEMBLIES_PROJECT
350
230
  3
Designer_Assemblies_SysVars
350
22A
  3
GREFAM_MODULE
350
226
  3
StructToggleButtonState
350
3DA
  0
DICTIONARY
  5
18E
330
2
100
AcDbDictionary
280
     1
281
     1
  3
ACAD_LAYERSTATES
360
18F
  0
DICTIONARY
  5
E6
330
10
100
AcDbDictionary
280
     1
281
     1
  0
DICTIONARY
  5
15D
330
1F
100
AcDbDictionary
280
     1
281
     1
  3
ACAD_SORTENTS
360
973
  0
DICTIONARY
  5
AB7
330
58
100
AcDbDictionary
280
     1
281
     1
  3
ACAD_SORTENTS
360
AB8
  0
DICTIONARY
  5
121C
330
121B
100
AcDbDictionary
280
     1
281
     1
  0
DICTIONARY
  5
291
330
290
100
AcDbDictionary
280
     1
281
     1
  3
ASDK_XREC_ANNOTATION_SCALE_INFO
360
292
  0
DICTIONARY
  5
9A1
330
9A0
100
AcDbDictionary
280
     1
281
     1
  3
ASDK_XREC_ANNOTATION_SCALE_INFO
360
9A2
  0
DICTIONARY
  5
E3C
330
E3B
100
AcDbDictionary
280
     1
281
     1
  3
ACAD_FIELD
360
E3D
  0
IMAGEDEF_REACTOR
  5
2053
330
2054
100
AcDbRasterImageDefReactor
 90
        2
330
2054
  0
DICTIONARY
  5
A93
102
{ACAD_REACTORS
330
C
102
}
330
C
100
AcDbDictionary
280
     1
281
     1
  0
XRECORD
  5
1A5
102
{ACAD_REACTORS
330
C
102
}
330
C
100
AcDbXrecord
280
     1
300
ACD
300
2020
300

  0
DICTIONARY
  5
73
102
{ACAD_REACTORS
330
C
102
}
330
C
100
AcDbDictionary
281
     1
  0
DICTIONARY
  5
1AB
102
{ACAD_REACTORS
330
C
102
}
330
C
100
AcDbDictionary
281
     1
  3
ASME Y14.35 - 1987
350
26D
  3
Imperial24
350
1AC
  0
FIELDLIST
  5
278
102
{ACAD_REACTORS
330
C
102
}
330
C
100
AcDbIdSet
 90
        6
330
E3E
330
E74
330
276
330
277
330
279
330
27A
100
AcDbFieldList
  0
DICTIONARY
  5
D
102
{ACAD_REACTORS
330
C
102
}
330
C
100
AcDbDictionary
281
     1
  0
DICTIONARY
  5
5A7
102
{ACAD_REACTORS
330
C
102
}
330
C
100
AcDbDictionary
281
     1
  3
GG_logo_Horiz_K_1
350
2052
  0
RASTERVARIABLES
  5
5A8
102
{ACAD_REACTORS
330
C
102
}
330
C
100
AcDbRasterVariables
 90
        0
 70
     0
 71
     1
 72
     5
  0
DICTIONARY
  5
1A
102
{ACAD_REACTORS
330
C
102
}
330
C
100
AcDbDictionary
281
     1
  3
Layout1
350
59
  3
Model
350
22
  0
DICTIONARY
  5
72
102
{ACAD_REACTORS
330
C
102
}
330
C
100
AcDbDictionary
281
     1
  3
ByBlock
350
97
  3
ByLayer
350
96
  3
Global
350
98
  0
DICTIONARY
  5
D7
102
{ACAD_REACTORS
330
C
102
}
330
C
100
AcDbDictionary
281
     1
  3
Annotative
350
E5
  3
Standard
350
D8
  0
DICTIONARY
  5
17
102
{ACAD_REACTORS
330
C
102
}
330
C
100
AcDbDictionary
281
     1
  3
Standard
350
18
  0
DICTIONARY
  5
19
102
{ACAD_REACTORS
330
C
102
}
330
C
100
AcDbDictionary
281
     1
  0
ACDBDICTIONARYWDFLT
  5
E
102
{ACAD_REACTORS
330
C
102
}
330
C
100
AcDbDictionary
281
     1
  3
Normal
350
F
100
AcDbDictionaryWithDefault
340
F
  0
DICTIONARY
  5
9A3
102
{ACAD_REACTORS
330
C
102
}
330
C
100
AcDbDictionary
281
     1
  3
Coffee-Break Quality
350
9A7
  3
High
350
9A6
  3
Low
350
9A4
  3
Lunch Quality
350
9A8
  3
Medium
350
9A5
  3
Overnight Quality
350
9A9
  0
DICTIONARY
  5
B6
102
{ACAD_REACTORS
330
C
102
}
330
C
100
AcDbDictionary
281
     1
  3
A0
350
B7
  3
A1
350
1909
  3
A2
350
922
  3
A3
350
190A
  3
A4
350
190B
  3
A5
350
190C
  3
A6
350
190D
  3
A7
350
190E
  3
A8
350
190F
  3
A9
350
1910
  3
B0
350
1911
  3
B1
350
1912
  3
B2
350
1913
  3
B3
350
1914
  3
B4
350
1915
  3
B5
350
1916
  3
B6
350
1917
  3
B7
350
1918
  3
B8
350
1919
  0
DICTIONARY
  5
1A8
102
{ACAD_REACTORS
330
C
102
}
330
C
100
AcDbDictionary
281
     1
  3
ASME Y14.3 - 2003
350
273
  3
Imperial24
350
1AA
  0
DICTIONARY
  5
86
102
{ACAD_REACTORS
330
C
102
}
330
C
100
AcDbDictionary
281
     1
  3
Standard
350
87
  0
DICTIONARY
  5
99
102
{ACAD_REACTORS
330
C
102
}
330
C
100
AcDbDictionary
281
     1
  3
2dWireframe
350
9F
  3
Basic
350
9E
  3
Brighten
350
A5
  3
ColorChange
350
A9
  3
Conceptual
350
A2
  3
Dim
350
A4
  3
EdgeColorOff
350
175
  3
Facepattern
350
A8
  3
Flat
350
9A
  3
FlatWithEdges
350
9B
  3
Gouraud
350
9C
  3
GouraudWithEdges
350
9D
  3
Hidden
350
A1
  3
JitterOff
350
173
  3
Linepattern
350
A7
  3
OverhangOff
350
174
  3
Realistic
350
A3
  3
Shaded
350
182
  3
Shaded with edges
350
181
  3
Shades of Gray
350
17E
  3
Sketchy
350
17F
  3
Thicken
350
A6
  3
Wireframe
350
A0
  3
X-Ray
350
180
  0
XRECORD
  5
207C
102
{ACAD_REACTORS
330
C
102
}
330
C
100
AcDbXrecord
280
     1
 90
        1
330
87
  0
DICTIONARY
  5
66
102
{ACAD_REACTORS
330
C
102
}
330
C
100
AcDbDictionary
281
     1
  3
CANNOSCALE
350
F0
  3
CMLEADERSTYLE
350
EF
  3
CTABLESTYLE
350
89
  3
CVIEWDETAILSTYLE
350
1B7
  3
CVIEWSECTIONSTYLE
350
1B8
  3
DIMASSOC
350
67
  3
FIELDEVAL
350
A9C
  3
HIDETEXT
350
6B
  3
HPCOLOR
350
1767
  3
HPTRANSPARENCY
350
1766
  3
LAYEREVAL
350
14D
  3
LAYERNOTIFY
350
14E
  0
ACAD_PROXY_OBJECT
  5
21E
102
{ACAD_REACTORS
330
C
102
}
330
C
100
AcDbProxyObject
 90
      499
 91
      525
 71
    33
 97
      157
 70
     0
162
                 0
161
                34
310
0C000042CC
 94
        0
  0
ACAD_PROXY_OBJECT
  5
222
102
{ACAD_REACTORS
330
C
102
}
330
C
100
AcDbProxyObject
 90
      499
 91
      528
 71
    33
 97
      157
 70
     0
162
                 0
161
               114
310
04000041C08000000000000000000C
 94
        0
  0
DICTIONARY
  5
23A
102
{ACAD_REACTORS
330
C
102
}
330
C
100
AcDbDictionary
281
     1
  3
AcmBOMDATA
350
23B
  3
AcmStdDictionary
350
23C
  0
ACAD_PROXY_OBJECT
  5
216
102
{ACAD_REACTORS
330
C
102
}
330
C
100
AcDbProxyObject
 90
      499
 91
      520
 71
    33
 97
      157
 70
     0
162
              8716
311
4393001040164013C01540150017C010C013C013801500148013C01300105510053004100560045004C534014C011C008000B4008001400140010400E80080008000800190019401CC01AC01D001BC01C000B8018401C801E00080011801A401B001940158019401C801CC01A401BC01B800E8008000C800CC00B800C000B8
311
00D000D800B800C000B800C0010455004E0044004F004115401380110013C010E4C00410059004F00550054005F0043004F004E00540052004F004C00429400148013C014001140148015001240114014C01044D004F005600450041544014C01040158011401314D005300470020002D0020005000500041003A002000200
311
020006400650073006B0074006F0070002E006100720078002000460069006C006500560065007200730069006F006E003A002000320033002E0030002E00340036002E0030002E0030004115401380110013C010455004E0044004F0041544014C01040158011401314D005300470020002D0020005000500041003A00200
311
0200020006400650073006B0074006F0070002E006100720078002000460069006C006500560065007200730069006F006E003A002000320033002E0030002E00340036002E0030002E0030004115401380110013C010455004E0044004F0041134013C015801140105450052004100530045004115001480124013401184D
311
005300470020002D00200043006F006D006D0061006E0064002000430041004E00430045004C004C00450044002E004151401480104014C0114010C47005200490050005F00530054005200450054004300480041544014C01040158011401314D005300470020002D0020005000500041003A002000200020006400650073
311
006B0074006F0070002E006100720078002000460069006C006500560065007200730069006F006E003A002000320034002E0030002E00350031002E0030002E0030004115401380110013C010455004E0044004F004150C0130013C014C011401314D005300470020002D0020005000500041003A00200020002000640065
311
0073006B0074006F0070002E006100720078002000460069006C006500560065007200730069006F006E003A002000320034002E0030002E00350031002E0030002E0030004115401380110013C010455004E0044004F00425400104014C01500114010C013001240140010455004E0044004F004115401380110013C01085
311
400450058005400450044004900540046134014C011C008000B40080010C01BC01B401B4018401B801900080010C01040138010C0114013001300114011000B8010C47005200490050005F0053005400520045005400430048004150C0130013C014C011401314D005300470020002D0020005000500041003A00200020002
311
0006400650073006B0074006F0070002E006100720078002000460069006C006500560065007200730069006F006E003A002000320034002E0030002E00350031002E0030002E003000C
161
               438
310
47806014040406018060180601404040601805010101806018060140404060180501010180601404040601806018060140404060140404
 94
        0
  0
ACAD_PROXY_OBJECT
  5
215
102
{ACAD_REACTORS
330
C
102
}
330
C
100
AcDbProxyObject
 90
      499
 91
      519
 71
    33
 97
      157
 70
     0
162
                 0
161
               274
310
160000554080000000000000000010D44600000000000000000000000000AAA406AA8C
360
218
360
228
360
22B
360
22C
360
22D
360
22E
360
22F
360
234
360
235
360
236
360
237
360
238
360
1550
 94
        0
  0
ACAD_PROXY_OBJECT
  5
219
102
{ACAD_REACTORS
330
C
102
}
330
C
100
AcDbProxyObject
 90
      499
 91
      523
 71
    33
 97
      157
 70
     0
162
                 0
161
                50
310
16000045A4128C
 94
        0
  0
ACAD_PROXY_OBJECT
  5
217
102
{ACAD_REACTORS
330
C
102
}
330
C
100
AcDbProxyObject
 90
      499
 91
      521
 71
    33
 97
      157
 70
     0
162
                 0
161
                32
310
90140A0000
330
218
 94
        0
  0
ACAD_PROXY_OBJECT
  5
227
102
{ACAD_REACTORS
330
C
102
}
330
C
100
AcDbProxyObject
 90
      499
 91
      521
 71
    33
 97
      157
 70
     0
162
                 0
161
                32
310
90140A0000
330
228
 94
        0
  0
DICTIONARY
  5
20E
102
{ACAD_REACTORS
330
C
102
}
330
C
100
AcDbDictionary
281
     1
  3
AcMgSettings
350
20F
  3
AMGLAYCFG
350
24F
  0
DICTIONARY
  5
406
102
{ACAD_REACTORS
330
C
102
}
330
C
100
AcDbDictionary
281
     1
  3
DIMENSION
350
40B
  3
FEA
350
40A
  3
HATCH (1)
350
407
  3
HATCH (2)
350
408
  3
SIMPLE WELD
350
40C
  3
SYMBOLS
350
409
  0
ACAD_PROXY_OBJECT
  5
223
102
{ACAD_REACTORS
330
C
102
}
330
C
100
AcDbProxyObject
 90
      499
 91
      529
 71
    33
 97
      157
 70
     0
162
                 0
161
                34
310
050000428C
 94
        0
  0
ACAD_PROXY_OBJECT
  5
230
102
{ACAD_REACTORS
330
C
102
}
330
C
100
AcDbProxyObject
 90
      499
 91
      535
 71
    33
 97
      157
 70
     0
162
                 0
161
                98
310
0E000053C0000000000000000C
330
236
330
0
330
237
330
0
330
0
330
0
330
0
330
0
 94
        0
  0
ACAD_PROXY_OBJECT
  5
22A
102
{ACAD_REACTORS
330
C
102
}
330
C
100
AcDbProxyObject
 90
      499
 91
      521
 71
    33
 97
      157
 70
     0
162
                 0
161
                64
310
90541A000000000099
330
22B
330
22C
330
22D
330
22E
330
22F
 94
        0
  0
ACAD_PROXY_OBJECT
  5
226
102
{ACAD_REACTORS
330
C
102
}
330
C
100
AcDbProxyObject
 90
      499
 91
      532
 71
    33
 97
      157
 70
     0
162
                 0
161
                 8
310
0575
 94
        0
  0
ACAD_PROXY_OBJECT
  5
3DA
102
{ACAD_REACTORS
330
C
102
}
330
C
100
AcDbProxyObject
 90
      499
 91
      571
 71
    33
 97
      157
 70
     0
162
                 0
161
                 1
310
4C
 94
        0
  0
DICTIONARY
  5
18F
102
{ACAD_REACTORS
330
18E
102
}
330
18E
100
AcDbDictionary
281
     1
  0
SORTENTSTABLE
  5
973
102
{ACAD_REACTORS
330
15D
102
}
330
15D
100
AcDbSortentsTable
330
1F
331
157B
  5
157E
331
157D
  5
1585
331
157E
  5
1586
331
157F
  5
1588
331
1581
  5
1589
331
1583
  5
158B
331
1584
  5
158C
331
1585
  5
158D
331
1586
  5
1592
331
1587
  5
1593
331
1588
  5
1594
331
1589
  5
1595
331
158D
  5
1598
331
158E
  5
1599
331
158F
  5
159B
331
1590
  5
159D
331
1592
  5
15A1
331
1593
  5
15A2
331
1594
  5
15A3
331
1596
  5
15A4
331
1599
  5
1CBC
331
159B
  5
1CBD
331
159C
  5
1CBE
331
159D
  5
1E9F
331
159E
  5
1CBF
331
159F
  5
1CC0
331
15A1
  5
15A7
331
15AC
  5
15A8
331
15AD
  5
15B3
331
15AE
  5
15B4
331
15AF
  5
15B5
331
15B0
  5
15B6
331
15B1
  5
15B7
331
15B2
  5
15B8
331
15B3
  5
15B9
331
15B4
  5
15BA
331
15B5
  5
15BB
331
15B6
  5
15BC
331
15B7
  5
15BD
331
15B8
  5
15BE
331
15BB
  5
15C1
331
15BC
  5
15C2
331
15BD
  5
15C3
331
15BE
  5
15C4
331
15BF
  5
15C5
331
15C0
  5
15C8
331
15C1
  5
15C9
331
15C2
  5
15CA
331
15CA
  5
15D2
331
15CC
  5
15D5
331
15CD
  5
15D6
331
15CE
  5
15D7
331
15CF
  5
15D8
331
15D0
  5
15D9
331
15D1
  5
15DA
331
15D2
  5
15DB
331
15D3
  5
15DC
331
15D4
  5
15DD
331
15D5
  5
15DE
331
15D6
  5
15DF
331
15D7
  5
15E0
331
15D8
  5
15E1
331
15D9
  5
15E2
331
15DA
  5
15E3
331
15DB
  5
15E4
331
15DC
  5
15E5
331
15DD
  5
15E6
331
15DE
  5
15E7
331
15DF
  5
15E8
331
15E0
  5
15E9
331
15E1
  5
15EA
331
15E2
  5
15EB
331
15E3
  5
15EC
331
15E4
  5
15ED
331
15E5
  5
15EE
331
15E6
  5
15EF
331
15E7
  5
15F0
331
15E8
  5
15F1
331
15E9
  5
15F2
331
15EA
  5
15F3
331
15EB
  5
15F4
331
15EC
  5
15F5
331
15ED
  5
1602
331
15FA
  5
1604
331
15FC
  5
1606
331
15FE
  5
1607
331
15FF
  5
1608
331
1600
  5
1609
331
1601
  5
160A
331
1602
  5
160B
331
1603
  5
160C
331
1604
  5
160D
331
1605
  5
160E
331
1606
  5
160F
331
1607
  5
1610
331
1608
  5
1611
331
1609
  5
1612
331
160A
  5
1613
331
160B
  5
1614
331
160C
  5
1615
331
160D
  5
1616
331
160E
  5
1617
331
160F
  5
1618
331
1610
  5
1619
331
1611
  5
161A
331
1612
  5
161B
331
1613
  5
161C
331
1614
  5
161D
331
1615
  5
161E
331
1616
  5
161F
331
1617
  5
1620
331
1618
  5
1621
331
1619
  5
1622
331
161A
  5
1623
331
161B
  5
1624
331
161C
  5
1625
331
161D
  5
1626
331
161E
  5
1627
331
161F
  5
1628
331
1620
  5
1629
331
1621
  5
162A
331
1622
  5
162B
331
1623
  5
162C
331
1624
  5
162D
331
1625
  5
162E
331
1626
  5
162F
331
1627
  5
1630
331
1628
  5
1631
331
1629
  5
1632
331
162A
  5
1633
331
162B
  5
1634
331
162C
  5
1635
331
162D
  5
1636
331
162E
  5
1637
331
162F
  5
1638
331
1630
  5
1639
331
1631
  5
163A
331
1632
  5
163B
331
1633
  5
163C
331
1634
  5
163D
331
1635
  5
163E
331
1636
  5
163F
331
1637
  5
1640
331
1638
  5
1641
331
1639
  5
1642
331
163A
  5
1643
331
163B
  5
1644
331
163C
  5
1645
331
163D
  5
1646
331
163E
  5
1647
331
163F
  5
1648
331
1640
  5
1649
331
1641
  5
164A
331
1642
  5
164B
331
1643
  5
164C
331
1644
  5
164D
331
1645
  5
164E
331
1646
  5
164F
331
1647
  5
1650
331
1648
  5
1651
331
1649
  5
1652
331
164A
  5
1653
331
164B
  5
1654
331
164C
  5
1655
331
164D
  5
1656
331
164E
  5
1657
331
164F
  5
1658
331
1650
  5
1659
331
1651
  5
165A
331
1652
  5
165B
331
1653
  5
165C
331
1654
  5
165D
331
1655
  5
165E
331
1656
  5
165F
331
1657
  5
1660
331
1658
  5
1661
331
1659
  5
1662
331
165A
  5
1663
331
165B
  5
1664
331
165C
  5
1665
331
165D
  5
1666
331
165E
  5
1667
331
165F
  5
1668
331
1660
  5
1669
331
1661
  5
166A
331
1662
  5
166B
331
1663
  5
166C
331
1664
  5
166D
331
1665
  5
166E
331
1666
  5
166F
331
1667
  5
1670
331
1668
  5
1671
331
1669
  5
1672
331
166A
  5
1673
331
166B
  5
1674
331
166C
  5
1675
331
166D
  5
1676
331
166E
  5
1677
331
166F
  5
1678
331
1670
  5
1679
331
1671
  5
167A
331
1672
  5
167B
331
1673
  5
167C
331
1674
  5
167D
331
1675
  5
167E
331
1676
  5
1CC1
331
1677
  5
167F
331
1678
  5
1680
331
1679
  5
1682
331
167A
  5
1684
331
167B
  5
1686
331
167C
  5
1687
331
167D
  5
1688
331
167E
  5
1689
331
167F
  5
168A
331
1682
  5
168B
331
1683
  5
1D5F
331
1684
  5
1D60
331
1685
  5
168D
331
1686
  5
168E
331
1687
  5
1691
331
1689
  5
1695
331
168A
  5
1D64
331
168B
  5
1E0B
331
168C
  5
1D61
331
168D
  5
1696
331
168E
  5
1697
331
168F
  5
1698
331
1690
  5
1699
331
1691
  5
169A
331
1692
  5
169B
331
1694
  5
1D62
331
1695
  5
1D63
331
16F2
  5
169C
331
16F3
  5
172D
331
1700
  5
172E
331
172E
  5
1597
331
172F
  5
158A
331
173F
  5
172F
331
1740
  5
173F
331
1741
  5
1740
331
1742
  5
1741
331
1743
  5
1742
331
1744
  5
1743
331
1745
  5
1744
331
1746
  5
1745
331
1747
  5
1746
331
174A
  5
174B
331
174B
  5
174C
331
174C
  5
174D
331
182C
  5
182E
331
1890
  5
1831
331
19CC
  5
1ACF
331
1A6F
  5
1EA0
331
1A78
  5
1EA1
331
1BD6
  5
1AD0
331
1BD7
  5
1AD1
331
1BD8
  5
1AD2
331
1BD9
  5
1AD3
331
1BDA
  5
1AD4
331
1BDB
  5
1AD5
331
1BDC
  5
1BD6
331
1BDD
  5
1BD7
331
1BDE
  5
1BD8
331
1BDF
  5
1BD9
331
1BE0
  5
1BDA
331
1BE1
  5
1BDB
331
1BE2
  5
1BDC
331
1BE3
  5
1BDD
331
1BE4
  5
1BDE
331
1BE5
  5
1BDF
331
1BE6
  5
1BE0
331
1BE7
  5
1BE1
331
1BE8
  5
1BE2
331
1BE9
  5
1BE3
331
1BEA
  5
1BE4
331
1BEB
  5
1BE5
331
1BEC
  5
1BE6
331
1BED
  5
1BE7
331
1BEE
  5
1BE8
331
1BEF
  5
1BE9
331
1BF0
  5
1BEA
331
1BF1
  5
1BEB
331
1BF2
  5
1BEC
331
1BF3
  5
1BED
331
1BF4
  5
1BEE
331
1BF5
  5
1BEF
331
1BF6
  5
1BF0
331
1BF7
  5
1BF1
331
1BF8
  5
1BF2
331
1BF9
  5
1BF3
331
1BFA
  5
1BF4
331
1BFB
  5
1BF5
331
1BFC
  5
1BF6
331
1BFD
  5
1BF7
331
1BFE
  5
1BF8
331
1BFF
  5
1BF9
331
1C00
  5
1BFA
331
1C01
  5
1BFB
331
1C02
  5
1BFC
331
1C03
  5
1BFD
331
1C04
  5
1BFE
331
1C05
  5
1BFF
331
1C06
  5
1C00
331
1C07
  5
1C01
331
1C08
  5
1C02
331
1C09
  5
1C03
331
1C0A
  5
1C04
331
1C0B
  5
1C05
331
1C0C
  5
1C06
331
1C0D
  5
1C07
331
1C0E
  5
1C08
331
1C0F
  5
1C09
331
1C10
  5
1C0A
331
1C11
  5
1C0B
331
1C12
  5
1C0C
331
1C13
  5
1C0D
331
1C14
  5
1C0E
331
1C15
  5
1C0F
331
1C16
  5
1C10
331
1C17
  5
1C11
331
1C18
  5
1C12
331
1C19
  5
1C13
331
1C1A
  5
1C14
331
1C1B
  5
1C15
331
1C1C
  5
1C16
331
1C1D
  5
1C17
331
1C1E
  5
1C18
331
1C1F
  5
1C19
331
1C20
  5
1C1A
331
1C21
  5
1C1B
331
1C22
  5
1C1C
331
1C23
  5
1C1D
331
1C24
  5
1C1E
331
1C25
  5
1C1F
331
1C26
  5
1C20
331
1C27
  5
1C21
331
1C28
  5
1C22
331
1C29
  5
1C23
331
1C2A
  5
1C24
331
1C2B
  5
1C25
331
1C2C
  5
1C26
331
1C2D
  5
1C27
331
1C2E
  5
1C28
331
1C2F
  5
1C29
331
1C30
  5
1C2A
331
1C31
  5
1C2B
331
1C32
  5
1C2C
331
1C33
  5
1C2D
331
1C34
  5
1C32
331
1C35
  5
1C33
331
1C36
  5
1C34
331
1C37
  5
1C35
331
1CBB
  5
1C36
331
1CBC
  5
1C37
331
1CBD
  5
1CA9
331
1CBE
  5
1CAA
331
1CBF
  5
1CAB
331
1CC0
  5
1CAC
331
1CC1
  5
1CBB
331
1D62
  5
1685
331
1D63
  5
15C7
331
1D64
  5
1692
331
1E9F
  5
1EC4
331
1EA0
  5
1ECB
331
1EA1
  5
1F3D
331
1EC4
  5
174A
331
1ECB
  5
1694
  0
SORTENTSTABLE
  5
AB8
102
{ACAD_REACTORS
330
AB7
102
}
330
AB7
100
AcDbSortentsTable
330
58
331
41F
  5
41A
331
420
  5
41F
331
59C
  5
420
331
5A6
  5
59C
331
5B8
  5
5AB
331
5CF
  5
5CE
331
9A0
  5
5CF
331
A35
  5
9A0
  0
XRECORD
  5
292
102
{ACAD_REACTORS
330
291
102
}
330
291
100
AcDbXrecord
280
     1
 90
        1
340
B7
  0
XRECORD
  5
9A2
102
{ACAD_REACTORS
330
9A1
102
}
330
9A1
100
AcDbXrecord
280
     1
 90
        1
340
922
  0
DICTIONARY
  5
E3D
102
{ACAD_REACTORS
330
E3C
102
}
330
E3C
100
AcDbDictionary
280
     1
281
     1
  3
TEXT
360
E3E
  0
ACDBDETAILVIEWSTYLE
  5
26D
102
{ACAD_REACTORS
330
244
330
1AB
102
}
330
1AB
100
AcDbModelDocViewStyle
 70
     0
  3

290
     0
300
ASME Y14.35 - 1987
 90
        1
100
AcDbDetailViewStyle
 70
     0
 71
     0
 90
        3
 71
     1
340
11
 62
    30
 40
0.24
340
26E
 62
     3
 40
0.24
300

 40
0.36
280
     2
 71
     2
340
16
 90
       15
 62
     3
 71
     3
340
11
 62
    30
 40
0.24
 90
        1
 40
0.75
 90
        1
300
%<\AcVar ViewType \f "%tc1">% %<\AcVar ViewDetailId>%\PSCALE %<\AcVar ViewScale \f "%sn">%
 71
     4
340
16
 90
       15
 62
     3
340
16
 90
       15
 62
     3
280
     0
  0
ACDBDETAILVIEWSTYLE
  5
1AC
102
{ACAD_REACTORS
330
1AB
330
268
102
}
330
1AB
100
AcDbModelDocViewStyle
 70
     0
  3
Imperial24
290
     0
300
Imperial24
 90
        0
100
AcDbDetailViewStyle
 70
     0
 71
     0
 90
        3
 71
     1
340
11
 62
   256
 40
0.24
340
0
 62
   256
 40
0.24
300

 40
0.36
280
     3
 71
     2
340
16
 90
       25
 62
   256
 71
     3
340
11
 62
   256
 40
0.24
 90
        1
 40
0.75
 90
        1
300
%<\AcVar ViewType \f "%tc1">% %<\AcVar ViewDetailId>%\PSCALE %<\AcVar ViewScale \f "%sn">%
 71
     4
340
16
 90
       25
 62
   256
340
16
 90
       25
 62
   256
280
     0
  0
IMAGEDEF
  5
2052
102
{ACAD_REACTORS
330
5A7
330
2053
102
}
330
5A7
100
AcDbRasterImageDef
 90
        0
  1
..\..\GG Logos\GG_logo_Horiz_K.jpg
 10
1894.0
 20
602.0
 11
0.0005279831045407
 21
0.0005279831045407
280
     1
281
     0
  0
LAYOUT
  5
59
102
{ACAD_REACTORS
330
1A
102
}
330
1A
100
AcDbPlotSettings
  1

  2
DWG To PDF.pc3
  4
ANSI_full_bleed_A_(8.50_x_11.00_Inches)
  6

 40
0.0
 41
0.0
 42
0.0
 43
0.0
 44
215.8999938964844
 45
279.3999938964844
 46
12.66027339950702
 47
12.82402317228734
 48
0.0
 49
0.0
140
0.0
141
0.0
142
1.0
143
1.0
 70
   692
 72
     0
 73
     0
 74
     1
  7
monochrome.ctb
 75
    16
147
1.0
 76
     0
 77
     2
 78
   300
148
-7.851940027100106
149
-8.09419593931163
100
AcDbLayout
  1
Layout1
 70
     1
 71
     1
 10
-0.1893044634805872
 20
-0.1862136705895949
 11
8.310695296223522
 21
10.81378608911451
 12
0.0
 22
0.0
 32
0.0
 14
0.3093692292309651
 24
0.3194843464751703
 34
0.0
 15
7.812167594685401
 25
10.30808073276256
 35
0.0
146
0.0
 13
0.0
 23
0.0
 33
0.0
 16
1.0
 26
0.0
 36
0.0
 17
0.0
 27
1.0
 37
0.0
 76
     0
330
58
331
290
1001
ACAD_PSEXT
1000
DWG To PDF.pc3
1000
DWG To PDF
1000
File
1000

1070
     0
  0
LAYOUT
  5
22
102
{ACAD_XDICTIONARY
360
194
102
}
102
{ACAD_REACTORS
330
1A
102
}
330
1A
100
AcDbPlotSettings
  1

  2
none_device
  4
ANSI_A_(8.50_x_11.00_Inches)
  6

 40
6.349999904632568
 41
19.04999923706055
 42
6.350006103515625
 43
19.04998779296875
 44
215.8999938964844
 45
279.3999938964844
 46
0.0
 47
0.0
 48
0.0
 49
0.0
140
0.0
141
0.0
142
1.0
143
2.584895464708373
 70
 11952
 72
     0
 73
     1
 74
     0
  7

 75
     0
147
0.3868628397755418
 76
     0
 77
     2
 78
   300
148
0.0
149
0.0
100
AcDbLayout
  1
Model
 70
     1
 71
     0
 10
0.0
 20
0.0
 11
12.0
 21
9.0
 12
0.0
 22
0.0
 32
0.0
 14
0.0
 24
0.0
 34
0.0
 15
0.0
 25
0.0
 35
0.0
146
0.0
 13
0.0
 23
0.0
 33
0.0
 16
1.0
 26
0.0
 36
0.0
 17
0.0
 27
1.0
 37
0.0
 76
     0
330
1F
331
94
  0
MATERIAL
  5
97
102
{ACAD_XDICTIONARY
360
188
102
}
102
{ACAD_REACTORS
330
72
102
}
330
72
100
AcDbMaterial
  1
ByBlock
 94
       63
  0
MATERIAL
  5
96
102
{ACAD_XDICTIONARY
360
186
102
}
102
{ACAD_REACTORS
330
72
102
}
330
72
100
AcDbMaterial
  1
ByLayer
 94
       63
  0
MATERIAL
  5
98
102
{ACAD_XDICTIONARY
360
110
102
}
102
{ACAD_REACTORS
330
72
102
}
330
72
100
AcDbMaterial
  1
Global
 43
0.0208000000566244
 43
0.0
 43
0.0
 43
0.0
 43
0.0
 43
0.0208000000566244
 43
0.0
 43
0.0
 43
0.0
 43
0.0
 43
1.0
 43
0.0
 43
0.0
 43
0.0
 43
0.0
 43
1.0
 49
0.0208000000566244
 49
0.0
 49
0.0
 49
0.0
 49
0.0
 49
0.0208000000566244
 49
0.0
 49
0.0
 49
0.0
 49
0.0
 49
1.0
 49
0.0
 49
0.0
 49
0.0
 49
0.0
 49
1.0
142
0.0208000000566244
142
0.0
142
0.0
142
0.0
142
0.0
142
0.0208000000566244
142
0.0
142
0.0
142
0.0
142
0.0
142
1.0
142
0.0
142
0.0
142
0.0
142
0.0
142
1.0
144
0.0208000000566244
144
0.0
144
0.0
144
0.0
144
0.0
144
0.0208000000566244
144
0.0
144
0.0
144
0.0
144
0.0
144
1.0
144
0.0
144
0.0
144
0.0
144
0.0
144
1.0
 94
       63
1001
ACAD
1070
    -1
1070
     3
1070
     0
1000

1071
        0
1070
     0
  0
MLEADERSTYLE
  5
E5
102
{ACAD_REACTORS
330
D7
102
}
330
D7
100
AcDbMLeaderStyle
179
     2
170
     2
171
     1
172
     0
 90
        2
 40
0.0
 41
0.0
173
     1
 91
-1056964608
340
14
 92
       -2
290
     1
 42
0.09
291
     1
 43
0.36
  3
Standard
 44
0.18
300

342
11
174
     1
178
     1
175
     1
176
     0
 93
-1056964608
 45
0.18
292
     0
297
     0
 46
0.18
 94
-1056964608
 47
1.0
 49
1.0
140
1.0
293
     1
141
0.0
294
     1
177
     0
142
1.0
295
     0
296
     1
143
0.125
271
     0
272
     9
273
     9
298
     0
  0
MLEADERSTYLE
  5
D8
102
{ACAD_REACTORS
330
D7
102
}
330
D7
100
AcDbMLeaderStyle
179
     2
170
     2
171
     1
172
     0
 90
        2
 40
0.0
 41
0.0
173
     1
 91
-1056964608
340
14
 92
       -2
290
     1
 42
0.09
291
     1
 43
0.36
  3
Standard
 44
0.18
300

342
11
174
     1
178
     1
175
     1
176
     0
 93
-1056964608
 45
0.18
292
     0
297
     0
 46
0.18
 94
-1056964608
 47
1.0
 49
1.0
140
1.0
293
     1
141
0.0
294
     1
177
     0
142
1.0
295
     0
296
     0
143
0.125
271
     0
272
     9
273
     9
298
     0
  0
MLINESTYLE
  5
18
102
{ACAD_REACTORS
330
17
102
}
330
17
100
AcDbMlineStyle
  2
STANDARD
 70
     0
  3

 62
   256
 51
90.0
 52
90.0
 71
     2
 49
0.5
 62
   256
  6
BYLAYER
 49
-0.5
 62
   256
  6
BYLAYER
  0
ACDBPLACEHOLDER
  5
F
102
{ACAD_REACTORS
330
E
102
}
330
E
  0
RAPIDRTRENDERSETTINGS
  5
9A7
102
{ACAD_REACTORS
330
9A3
102
}
330
9A3
100
AcDbRenderSettings
 90
        2
  1
Coffee-Break Quality
290
     1
290
     0
290
     1
290
     1
  1

  1
Renders for 10 minutes
 90
        3
100
AcDbRapidRTRenderSettings
 90
        3
 70
     1
 90
        1
 90
       10
 70
     1
 70
     2
 40
3.0
 40
3.0
290
     1
  0
RAPIDRTRENDERSETTINGS
  5
9A6
102
{ACAD_REACTORS
330
9A3
102
}
330
9A3
100
AcDbRenderSettings
 90
        2
  1
High
290
     1
290
     0
290
     1
290
     1
  1

  1
Applies 10 rendering levels
 90
        2
100
AcDbRapidRTRenderSettings
 90
        3
 70
     0
 90
       10
 90
        1
 70
     2
 70
     2
 40
3.0
 40
3.0
290
     1
  0
RAPIDRTRENDERSETTINGS
  5
9A4
102
{ACAD_REACTORS
330
9A3
102
}
330
9A3
100
AcDbRenderSettings
 90
        2
  1
Low
290
     1
290
     0
290
     1
290
     1
  1

  1
Applies 1 rendering level
 90
        0
100
AcDbRapidRTRenderSettings
 90
        3
 70
     0
 90
        1
 90
        1
 70
     0
 70
     2
 40
3.0
 40
3.0
290
     1
  0
RAPIDRTRENDERSETTINGS
  5
9A8
102
{ACAD_REACTORS
330
9A3
102
}
330
9A3
100
AcDbRenderSettings
 90
        2
  1
Lunch Quality
290
     1
290
     0
290
     1
290
     1
  1

  1
Renders for 60 minutes
 90
        4
100
AcDbRapidRTRenderSettings
 90
        3
 70
     1
 90
        1
 90
       60
 70
     2
 70
     2
 40
3.0
 40
3.0
290
     1
  0
RAPIDRTRENDERSETTINGS
  5
9A5
102
{ACAD_REACTORS
330
9A3
102
}
330
9A3
100
AcDbRenderSettings
 90
        2
  1
Medium
290
     1
290
     0
290
     1
290
     1
  1

  1
Applies 5 rendering levels
 90
        1
100
AcDbRapidRTRenderSettings
 90
        3
 70
     0
 90
        5
 90
        1
 70
     1
 70
     2
 40
3.0
 40
3.0
290
     1
  0
RAPIDRTRENDERSETTINGS
  5
9A9
102
{ACAD_REACTORS
330
9A3
102
}
330
9A3
100
AcDbRenderSettings
 90
        2
  1
Overnight Quality
290
     1
290
     0
290
     1
290
     1
  1

  1
Renders for 12 hours
 90
        5
100
AcDbRapidRTRenderSettings
 90
        3
 70
     1
 90
        1
 90
      720
 70
     2
 70
     2
 40
3.0
 40
3.0
290
     1
  0
SCALE
  5
B7
102
{ACAD_REACTORS
330
B6
102
}
330
B6
100
AcDbScale
 70
     0
300
1:1
140
1.0
141
1.0
290
     1
  0
SCALE
  5
1909
102
{ACAD_REACTORS
330
B6
102
}
330
B6
100
AcDbScale
 70
     0
300
1"-1.25"
140
1.0
141
1.25
290
     0
  0
SCALE
  5
922
102
{ACAD_REACTORS
330
B6
102
}
330
B6
100
AcDbScale
 70
     0
300
1"-1.5"
140
1.0
141
1.5
290
     0
  0
SCALE
  5
190A
102
{ACAD_REACTORS
330
B6
102
}
330
B6
100
AcDbScale
 70
     0
300
1/128" = 1'-0"
140
0.0078125
141
12.0
290
     0
  0
SCALE
  5
190B
102
{ACAD_REACTORS
330
B6
102
}
330
B6
100
AcDbScale
 70
     0
300
1/64" = 1'-0"
140
0.015625
141
12.0
290
     0
  0
SCALE
  5
190C
102
{ACAD_REACTORS
330
B6
102
}
330
B6
100
AcDbScale
 70
     0
300
1/32" = 1'-0"
140
0.03125
141
12.0
290
     0
  0
SCALE
  5
190D
102
{ACAD_REACTORS
330
B6
102
}
330
B6
100
AcDbScale
 70
     0
300
1/16" = 1'-0"
140
0.0625
141
12.0
290
     0
  0
SCALE
  5
190E
102
{ACAD_REACTORS
330
B6
102
}
330
B6
100
AcDbScale
 70
     0
300
3/32" = 1'-0"
140
0.09375
141
12.0
290
     0
  0
SCALE
  5
190F
102
{ACAD_REACTORS
330
B6
102
}
330
B6
100
AcDbScale
 70
     0
300
1/8" = 1'-0"
140
0.125
141
12.0
290
     0
  0
SCALE
  5
1910
102
{ACAD_REACTORS
330
B6
102
}
330
B6
100
AcDbScale
 70
     0
300
3/16" = 1'-0"
140
0.1875
141
12.0
290
     0
  0
SCALE
  5
1911
102
{ACAD_REACTORS
330
B6
102
}
330
B6
100
AcDbScale
 70
     0
300
1/4" = 1'-0"
140
0.25
141
12.0
290
     0
  0
SCALE
  5
1912
102
{ACAD_REACTORS
330
B6
102
}
330
B6
100
AcDbScale
 70
     0
300
3/8" = 1'-0"
140
0.375
141
12.0
290
     0
  0
SCALE
  5
1913
102
{ACAD_REACTORS
330
B6
102
}
330
B6
100
AcDbScale
 70
     0
300
1/2" = 1'-0"
140
0.5
141
12.0
290
     0
  0
SCALE
  5
1914
102
{ACAD_REACTORS
330
B6
102
}
330
B6
100
AcDbScale
 70
     0
300
3/4" = 1'-0"
140
0.75
141
12.0
290
     0
  0
SCALE
  5
1915
102
{ACAD_REACTORS
330
B6
102
}
330
B6
100
AcDbScale
 70
     0
300
1" = 1'-0"
140
1.0
141
12.0
290
     0
  0
SCALE
  5
1916
102
{ACAD_REACTORS
330
B6
102
}
330
B6
100
AcDbScale
 70
     0
300
1-1/2" = 1'-0"
140
1.5
141
12.0
290
     0
  0
SCALE
  5
1917
102
{ACAD_REACTORS
330
B6
102
}
330
B6
100
AcDbScale
 70
     0
300
3" = 1'-0"
140
3.0
141
12.0
290
     0
  0
SCALE
  5
1918
102
{ACAD_REACTORS
330
B6
102
}
330
B6
100
AcDbScale
 70
     0
300
6" = 1'-0"
140
6.0
141
12.0
290
     0
  0
SCALE
  5
1919
102
{ACAD_REACTORS
330
B6
102
}
330
B6
100
AcDbScale
 70
     0
300
1'-0" = 1'-0"
140
12.0
141
12.0
290
     0
  0
ACDBSECTIONVIEWSTYLE
  5
273
102
{ACAD_XDICTIONARY
360
274
102
}
102
{ACAD_REACTORS
330
245
330
1A8
102
}
330
1A8
100
AcDbModelDocViewStyle
 70
     0
  3

290
     1
300
ASME Y14.3 - 2003
 90
        1
100
AcDbSectionViewStyle
 70
     0
 71
     0
 90
       78
 71
     1
340
11
 62
    30
 40
0.24
340
0
340
0
 62
     7
 40
0.24
300
I,O,Q,S,X,Z
 40
0.4
 90
        3
 40
0.12
 90
        1
 71
     2
340
21B
 90
       30
 62
     7
340
21B
 90
       30
 62
     7
 40
0.4
 40
0.0
 40
0.4
 71
     3
340
11
 62
    30
 40
0.24
 90
        0
 40
0.18
 90
        1
300
%<\AcVar ViewType \f "%tc1">% %<\AcVar ViewSectionStartId>%-%<\AcVar ViewSectionEndId>%
 71
     4
 62
   256
 62
   257
300
ANSI31
 40
1.0
 90
        0
290
     0
290
     0
 90
        6
 40
0.0
 40
1.570796326794896
 40
0.2617993877991494
 40
1.308996938995747
 40
-0.2617993877991494
 40
1.832595714594046
  0
ACDBSECTIONVIEWSTYLE
  5
1AA
102
{ACAD_REACTORS
330
1A8
330
267
102
}
330
1A8
100
AcDbModelDocViewStyle
 70
     0
  3
Imperial24
290
     0
300
Imperial24
 90
        0
100
AcDbSectionViewStyle
 70
     0
 71
     0
 90
       78
 71
     1
340
11
 62
   256
 40
0.24
340
0
340
0
 62
   256
 40
0.24
300
I, O, Q, S, X, Z
 40
0.48
 90
        3
 40
0.18
 90
        1
 71
     2
340
16
 90
       25
 62
   256
340
16
 90
       50
 62
   256
 40
0.24
 40
0.0
 40
0.24
 71
     3
340
11
 62
   256
 40
0.24
 90
        1
 40
0.75
 90
        1
300
%<\AcVar ViewType \f "%tc1">% %<\AcVar ViewSectionStartId>%-%<\AcVar ViewSectionEndId>%\PSCALE %<\AcVar ViewScale \f "%sn">%
 71
     4
 62
   256
 62
   257
300
ANSI31
 40
1.0
 90
        0
290
     0
290
     0
 90
        6
 40
0.0
 40
1.570796326794896
 40
0.2617993877991494
 40
1.308996938995747
 40
-0.2617993877991494
 40
1.832595714594046
  0
TABLESTYLE
  5
87
102
{ACAD_XDICTIONARY
360
104
102
}
102
{ACAD_REACTORS
330
86
102
}
330
86
100
AcDbTableStyle
280
     0
  3
Standard
 70
     0
 71
     0
 40
0.06
 41
0.06
280
     0
281
     0
  7
Standard
140
0.18
170
     2
 62
     0
 63
     7
283
     0
 90
      512
 91
        0
  1

274
    -2
284
     1
 64
     0
275
    -2
285
     1
 65
     0
276
    -2
286
     1
 66
     0
277
    -2
287
     1
 67
     0
278
    -2
288
     1
 68
     0
279
    -2
289
     1
 69
     0
  7
Standard
140
0.25
170
     5
 62
     0
 63
     7
283
     0
 90
      512
 91
        0
  1

274
    -2
284
     1
 64
     0
275
    -2
285
     1
 65
     0
276
    -2
286
     1
 66
     0
277
    -2
287
     1
 67
     0
278
    -2
288
     1
 68
     0
279
    -2
289
     1
 69
     0
  7
Standard
140
0.18
170
     5
 62
     0
 63
     7
283
     0
 90
      512
 91
        0
  1

274
    -2
284
     1
 64
     0
275
    -2
285
     1
 65
     0
276
    -2
286
     1
 66
     0
277
    -2
287
     1
 67
     0
278
    -2
288
     1
 68
     0
279
    -2
289
     1
 69
     0
  0
VISUALSTYLE
  5
9F
102
{ACAD_REACTORS
330
99
102
}
330
99
100
AcDbVisualStyle
  2
2dWireframe
 70
     4
177
     3
291
     0
 70
    58
 90
        0
176
     1
 90
        2
176
     1
 90
        1
176
     1
 90
        0
176
     1
 40
0.6
176
     1
 40
30.0
176
     1
 62
     7
420
 16777215
176
     1
 90
        1
176
     1
 90
        4
176
     1
 62
     7
176
     1
 62
   257
176
     1
 90
        1
176
     1
 90
        1
176
     1
 40
1.0
176
     1
 90
        0
176
     1
 62
   257
176
     1
 40
1.0
176
     1
 90
        1
176
     1
 90
        6
176
     1
 90
        2
176
     1
 62
     7
176
     1
 90
        5
176
     1
 90
        0
176
     1
 90
        0
176
     1
290
     0
176
     1
 90
        1
176
     1
 40
0.0
176
     1
 90
        0
176
     1
290
     1
176
     1
290
     1
176
     1
290
     0
176
     1
290
     0
176
     1
290
     0
176
     1
290
     0
176
     1
290
     0
176
     1
290
     0
176
     1
290
     0
176
     1
 90
       50
176
     1
 40
0.0
176
     1
 40
1.0
176
     1
 90
        0
176
     1
 62
    18
420
        0
176
     1
 90
       50
176
     1
 90
        3
176
     1
 62
     5
420
      255
176
     1
290
     0
176
     1
 90
       50
176
     1
 90
       50
176
     1
 90
       50
176
     1
290
     0
176
     1
 90
       50
176
     1
 62
   256
176
     0
 40
1.0
176
     0
 90
        2
176
     1
  1
strokes_ogs.tif
176
     1
290
     0
176
     1
 40
1.0
176
     1
 40
1.0
176
     1
  0
VISUALSTYLE
  5
9E
102
{ACAD_REACTORS
330
99
102
}
330
99
100
AcDbVisualStyle
  2
Basic
 70
     7
177
     3
291
     1
 70
    58
 90
        1
176
     1
 90
        0
176
     1
 90
        1
176
     1
 90
        0
176
     1
 40
0.6
176
     1
 40
30.0
176
     1
 62
     7
420
 16777215
176
     1
 90
        0
176
     1
 90
        4
176
     1
 62
     7
176
     1
 62
   257
176
     1
 90
        1
176
     1
 90
        1
176
     1
 40
1.0
176
     1
 90
        8
176
     1
 62
     7
176
     1
 40
1.0
176
     1
 90
        1
176
     1
 90
        6
176
     1
 90
        2
176
     1
 62
     7
176
     1
 90
        5
176
     1
 90
        0
176
     1
 90
        0
176
     1
290
     0
176
     1
 90
        1
176
     1
 40
0.0
176
     1
 90
        0
176
     1
290
     0
176
     1
290
     1
176
     1
290
     1
176
     1
290
     0
176
     1
290
     0
176
     1
290
     0
176
     1
290
     0
176
     1
290
     0
176
     1
290
     0
176
     1
 90
       50
176
     1
 40
0.0
176
     1
 40
1.0
176
     1
 90
        0
176
     1
 62
    18
420
        0
176
     1
 90
       50
176
     1
 90
        3
176
     1
 62
     5
420
      255
176
     1
290
     0
176
     1
 90
       50
176
     1
 90
       50
176
     1
 90
       50
176
     1
290
     0
176
     1
 90
       50
176
     1
 62
   256
176
     0
 40
1.0
176
     0
 90
        2
176
     1
  1
strokes_ogs.tif
176
     1
290
     0
176
     1
 40
1.0
176
     1
 40
1.0
176
     1
  0
VISUALSTYLE
  5
A5
102
{ACAD_REACTORS
330
99
102
}
330
99
100
AcDbVisualStyle
  2
Brighten
 70
    12
177
     3
291
     1
 70
    58
 90
        2
176
     1
 90
        2
176
     1
 90
        1
176
     1
 90
        0
176
     1
 40
0.6
176
     1
 40
30.0
176
     1
 62
     7
420
 16777215
176
     1
 90
        1
176
     1
 90
        4
176
     1
 62
     7
176
     1
 62
   257
176
     1
 90
        1
176
     1
 90
        1
176
     1
 40
1.0
176
     1
 90
        8
176
     1
 62
     7
176
     1
 40
1.0
176
     1
 90
        1
176
     1
 90
        6
176
     1
 90
        2
176
     1
 62
     7
176
     1
 90
        5
176
     1
 90
        0
176
     1
 90
        0
176
     1
290
     0
176
     1
 90
        1
176
     1
 40
50.0
176
     1
 90
        0
176
     1
290
     0
176
     1
290
     1
176
     1
290
     1
176
     1
290
     0
176
     1
290
     0
176
     1
290
     0
176
     1
290
     0
176
     1
290
     0
176
     1
290
     0
176
     1
 90
       50
176
     1
 40
0.0
176
     1
 40
1.0
176
     1
 90
        0
176
     1
 62
    18
420
        0
176
     1
 90
       50
176
     1
 90
        3
176
     1
 62
     5
420
      255
176
     1
290
     0
176
     1
 90
       50
176
     1
 90
       50
176
     1
 90
       50
176
     1
290
     0
176
     1
 90
       50
176
     1
 62
   256
176
     0
 40
1.0
176
     0
 90
        2
176
     1
  1
strokes_ogs.tif
176
     1
290
     0
176
     1
 40
1.0
176
     1
 40
1.0
176
     1
  0
VISUALSTYLE
  5
A9
102
{ACAD_REACTORS
330
99
102
}
330
99
100
AcDbVisualStyle
  2
ColorChange
 70
    16
177
     3
291
     1
 70
    58
 90
        2
176
     1
 90
        2
176
     1
 90
        3
176
     1
 90
        0
176
     1
 40
0.6
176
     1
 40
30.0
176
     1
 62
     8
420
  8421504
176
     1
 90
        1
176
     1
 90
        4
176
     1
 62
     7
176
     1
 62
   257
176
     1
 90
        1
176
     1
 90
        1
176
     1
 40
1.0
176
     1
 90
        8
176
     1
 62
     8
420
  8421504
176
     1
 40
1.0
176
     1
 90
        1
176
     1
 90
        6
176
     1
 90
        2
176
     1
 62
     7
176
     1
 90
        5
176
     1
 90
        0
176
     1
 90
        0
176
     1
290
     0
176
     1
 90
        1
176
     1
 40
0.0
176
     1
 90
        0
176
     1
290
     0
176
     1
290
     1
176
     1
290
     1
176
     1
290
     0
176
     1
290
     0
176
     1
290
     0
176
     1
290
     0
176
     1
290
     0
176
     1
290
     0
176
     1
 90
       50
176
     1
 40
0.0
176
     1
 40
1.0
176
     1
 90
        0
176
     1
 62
    18
420
        0
176
     1
 90
       50
176
     1
 90
        3
176
     1
 62
     5
420
      255
176
     1
290
     0
176
     1
 90
       50
176
     1
 90
       50
176
     1
 90
       50
176
     1
290
     0
176
     1
 90
       50
176
     1
 62
   256
176
     0
 40
1.0
176
     0
 90
        2
176
     1
  1
strokes_ogs.tif
176
     1
290
     0
176
     1
 40
1.0
176
     1
 40
1.0
176
     1
  0
VISUALSTYLE
  5
A2
102
{ACAD_REACTORS
330
99
102
}
330
99
100
AcDbVisualStyle
  2
Conceptual
 70
     9
177
     3
291
     0
 70
    58
 90
        3
176
     1
 90
        2
176
     1
 90
        1
176
     1
 90
        0
176
     1
 40
0.6
176
     1
 40
30.0
176
     1
 62
     7
420
 16777215
176
     1
 90
        2
176
     1
 90
        2
176
     1
 62
     7
176
     1
 62
   257
176
     1
 90
        1
176
     1
 90
        1
176
     1
 40
40.0
176
     1
 90
        8
176
     1
 62
     7
176
     1
 40
1.0
176
     1
 90
        1
176
     1
 90
        6
176
     1
 90
        2
176
     1
 62
     7
176
     1
 90
        3
176
     1
 90
        0
176
     1
 90
        0
176
     1
290
     0
176
     1
 90
        1
176
     1
 40
0.0
176
     1
 90
        0
176
     1
290
     0
176
     1
290
     1
176
     1
290
     1
176
     1
290
     0
176
     1
290
     0
176
     1
290
     0
176
     1
290
     0
176
     1
290
     0
176
     1
290
     0
176
     1
 90
       50
176
     1
 40
0.0
176
     1
 40
1.0
176
     1
 90
        0
176
     1
 62
    18
420
        0
176
     1
 90
       50
176
     1
 90
        3
176
     1
 62
     5
420
      255
176
     1
290
     0
176
     1
 90
       50
176
     1
 90
       50
176
     1
 90
       50
176
     1
290
     0
176
     1
 90
       50
176
     1
 62
   256
176
     0
 40
1.0
176
     0
 90
        2
176
     1
  1
strokes_ogs.tif
176
     1
290
     0
176
     1
 40
1.0
176
     1
 40
1.0
176
     1
  0
VISUALSTYLE
  5
A4
102
{ACAD_REACTORS
330
99
102
}
330
99
100
AcDbVisualStyle
  2
Dim
 70
    11
177
     3
291
     1
 70
    58
 90
        2
176
     1
 90
        2
176
     1
 90
        1
176
     1
 90
        0
176
     1
 40
0.6
176
     1
 40
30.0
176
     1
 62
     7
420
 16777215
176
     1
 90
        1
176
     1
 90
        4
176
     1
 62
     7
176
     1
 62
   257
176
     1
 90
        1
176
     1
 90
        1
176
     1
 40
1.0
176
     1
 90
        8
176
     1
 62
     7
176
     1
 40
1.0
176
     1
 90
        1
176
     1
 90
        6
176
     1
 90
        2
176
     1
 62
     7
176
     1
 90
        5
176
     1
 90
        0
176
     1
 90
        0
176
     1
290
     0
176
     1
 90
        1
176
     1
 40
-50.0
176
     1
 90
        0
176
     1
290
     0
176
     1
290
     1
176
     1
290
     1
176
     1
290
     0
176
     1
290
     0
176
     1
290
     0
176
     1
290
     0
176
     1
290
     0
176
     1
290
     0
176
     1
 90
       50
176
     1
 40
0.0
176
     1
 40
1.0
176
     1
 90
        0
176
     1
 62
    18
420
        0
176
     1
 90
       50
176
     1
 90
        3
176
     1
 62
     5
420
      255
176
     1
290
     0
176
     1
 90
       50
176
     1
 90
       50
176
     1
 90
       50
176
     1
290
     0
176
     1
 90
       50
176
     1
 62
   256
176
     0
 40
1.0
176
     0
 90
        2
176
     1
  1
strokes_ogs.tif
176
     1
290
     0
176
     1
 40
1.0
176
     1
 40
1.0
176
     1
  0
VISUALSTYLE
  5
175
102
{ACAD_REACTORS
330
99
102
}
330
99
100
AcDbVisualStyle
  2
EdgeColorOff
 70
    22
177
     3
291
     1
 70
    58
 90
        2
176
     0
 90
        2
176
     0
 90
        0
176
     0
 90
        0
176
     0
 40
0.6
176
     0
 40
30.0
176
     0
 62
     7
420
 16777215
176
     0
 90
        1
176
     0
 90
        4
176
     0
 62
     7
176
     0
 62
   257
176
     0
 90
        1
176
     0
 90
        1
176
     0
 40
1.0
176
     0
 90
        8
176
     2
 62
     7
176
     0
 40
1.0
176
     0
 90
        1
176
     0
 90
        6
176
     0
 90
        2
176
     0
 62
     7
176
     0
 90
        5
176
     0
 90
        0
176
     0
 90
        0
176
     0
290
     0
176
     0
 90
        1
176
     0
 40
0.0
176
     0
 90
        0
176
     0
290
     0
176
     1
290
     1
176
     1
290
     1
176
     1
290
     0
176
     1
290
     0
176
     1
290
     0
176
     1
290
     0
176
     1
290
     0
176
     1
290
     0
176
     1
 90
       50
176
     1
 40
0.0
176
     1
 40
1.0
176
     1
 90
        0
176
     1
 62
    18
420
        0
176
     1
 90
       50
176
     1
 90
        3
176
     1
 62
     5
420
      255
176
     1
290
     0
176
     1
 90
       50
176
     1
 90
       50
176
     1
 90
       50
176
     1
290
     0
176
     1
 90
       50
176
     1
 62
   256
176
     0
 40
1.0
176
     0
 90
        2
176
     1
  1
strokes_ogs.tif
176
     1
290
     0
176
     1
 40
1.0
176
     1
 40
1.0
176
     1
  0
VISUALSTYLE
  5
A8
102
{ACAD_REACTORS
330
99
102
}
330
99
100
AcDbVisualStyle
  2
Facepattern
 70
    15
177
     3
291
     1
 70
    58
 90
        2
176
     1
 90
        2
176
     1
 90
        1
176
     1
 90
        0
176
     1
 40
0.6
176
     1
 40
30.0
176
     1
 62
     7
420
 16777215
176
     1
 90
        1
176
     1
 90
        4
176
     1
 62
     7
176
     1
 62
   257
176
     1
 90
        1
176
     1
 90
        1
176
     1
 40
1.0
176
     1
 90
        8
176
     1
 62
     7
176
     1
 40
1.0
176
     1
 90
        1
176
     1
 90
        6
176
     1
 90
        2
176
     1
 62
     7
176
     1
 90
        5
176
     1
 90
        0
176
     1
 90
        0
176
     1
290
     0
176
     1
 90
        1
176
     1
 40
0.0
176
     1
 90
        0
176
     1
290
     0
176
     1
290
     1
176
     1
290
     1
176
     1
290
     0
176
     1
290
     0
176
     1
290
     0
176
     1
290
     0
176
     1
290
     0
176
     1
290
     0
176
     1
 90
       50
176
     1
 40
0.0
176
     1
 40
1.0
176
     1
 90
        0
176
     1
 62
    18
420
        0
176
     1
 90
       50
176
     1
 90
        3
176
     1
 62
     5
420
      255
176
     1
290
     0
176
     1
 90
       50
176
     1
 90
       50
176
     1
 90
       50
176
     1
290
     0
176
     1
 90
       50
176
     1
 62
   256
176
     0
 40
1.0
176
     0
 90
        2
176
     1
  1
strokes_ogs.tif
176
     1
290
     0
176
     1
 40
1.0
176
     1
 40
1.0
176
     1
  0
VISUALSTYLE
  5
9A
102
{ACAD_REACTORS
330
99
102
}
330
99
100
AcDbVisualStyle
  2
Flat
 70
     0
177
     3
291
     1
 70
    58
 90
        2
176
     1
 90
        1
176
     1
 90
        1
176
     1
 90
        2
176
     1
 40
0.6
176
     1
 40
30.0
176
     1
 62
     7
420
 16777215
176
     1
 90
        0
176
     1
 90
        0
176
     1
 62
     7
176
     1
 62
   257
176
     1
 90
        1
176
     1
 90
        1
176
     1
 40
1.0
176
     1
 90
        8
176
     1
 62
     7
176
     1
 40
1.0
176
     1
 90
        1
176
     1
 90
        6
176
     1
 90
        2
176
     1
 62
     7
176
     1
 90
        5
176
     1
 90
        0
176
     1
 90
        0
176
     1
290
     0
176
     1
 90
       13
176
     1
 40
0.0
176
     1
 90
        0
176
     1
290
     0
176
     1
290
     1
176
     1
290
     1
176
     1
290
     0
176
     1
290
     0
176
     1
290
     0
176
     1
290
     0
176
     1
290
     0
176
     1
290
     0
176
     1
 90
       50
176
     1
 40
0.0
176
     1
 40
1.0
176
     1
 90
        0
176
     1
 62
    18
420
        0
176
     1
 90
       50
176
     1
 90
        3
176
     1
 62
     5
420
      255
176
     1
290
     0
176
     1
 90
       50
176
     1
 90
       50
176
     1
 90
       50
176
     1
290
     0
176
     1
 90
       50
176
     1
 62
   256
176
     0
 40
1.0
176
     0
 90
        2
176
     1
  1
strokes_ogs.tif
176
     1
290
     0
176
     1
 40
1.0
176
     1
 40
1.0
176
     1
  0
VISUALSTYLE
  5
9B
102
{ACAD_REACTORS
330
99
102
}
330
99
100
AcDbVisualStyle
  2
FlatWithEdges
 70
     1
177
     3
291
     1
 70
    58
 90
        2
176
     1
 90
        1
176
     1
 90
        1
176
     1
 90
        2
176
     1
 40
0.6
176
     1
 40
30.0
176
     1
 62
     7
420
 16777215
176
     1
 90
        1
176
     1
 90
        0
176
     1
 62
     7
176
     1
 62
   257
176
     1
 90
        1
176
     1
 90
        1
176
     1
 40
1.0
176
     1
 90
        0
176
     1
 62
   257
176
     1
 40
1.0
176
     1
 90
        1
176
     1
 90
        6
176
     1
 90
        2
176
     1
 62
     7
176
     1
 90
        5
176
     1
 90
        0
176
     1
 90
        0
176
     1
290
     0
176
     1
 90
       13
176
     1
 40
0.0
176
     1
 90
        0
176
     1
290
     0
176
     1
290
     1
176
     1
290
     1
176
     1
290
     0
176
     1
290
     0
176
     1
290
     0
176
     1
290
     0
176
     1
290
     0
176
     1
290
     0
176
     1
 90
       50
176
     1
 40
0.0
176
     1
 40
1.0
176
     1
 90
        0
176
     1
 62
    18
420
        0
176
     1
 90
       50
176
     1
 90
        3
176
     1
 62
     5
420
      255
176
     1
290
     0
176
     1
 90
       50
176
     1
 90
       50
176
     1
 90
       50
176
     1
290
     0
176
     1
 90
       50
176
     1
 62
   256
176
     0
 40
1.0
176
     0
 90
        2
176
     1
  1
strokes_ogs.tif
176
     1
290
     0
176
     1
 40
1.0
176
     1
 40
1.0
176
     1
  0
VISUALSTYLE
  5
9C
102
{ACAD_REACTORS
330
99
102
}
330
99
100
AcDbVisualStyle
  2
Gouraud
 70
     2
177
     3
291
     1
 70
    58
 90
        2
176
     1
 90
        2
176
     1
 90
        1
176
     1
 90
        2
176
     1
 40
0.6
176
     1
 40
30.0
176
     1
 62
     7
420
 16777215
176
     1
 90
        0
176
     1
 90
        0
176
     1
 62
     7
176
     1
 62
   257
176
     1
 90
        1
176
     1
 90
        1
176
     1
 40
1.0
176
     1
 90
        0
176
     1
 62
     7
176
     1
 40
1.0
176
     1
 90
        1
176
     1
 90
        6
176
     1
 90
        2
176
     1
 62
     7
176
     1
 90
        5
176
     1
 90
        0
176
     1
 90
        0
176
     1
290
     0
176
     1
 90
       13
176
     1
 40
0.0
176
     1
 90
        0
176
     1
290
     0
176
     1
290
     1
176
     1
290
     1
176
     1
290
     0
176
     1
290
     0
176
     1
290
     0
176
     1
290
     0
176
     1
290
     0
176
     1
290
     0
176
     1
 90
       50
176
     1
 40
0.0
176
     1
 40
1.0
176
     1
 90
        0
176
     1
 62
    18
420
        0
176
     1
 90
       50
176
     1
 90
        3
176
     1
 62
     5
420
      255
176
     1
290
     0
176
     1
 90
       50
176
     1
 90
       50
176
     1
 90
       50
176
     1
290
     0
176
     1
 90
       50
176
     1
 62
   256
176
     0
 40
1.0
176
     0
 90
        2
176
     1
  1
strokes_ogs.tif
176
     1
290
     0
176
     1
 40
1.0
176
     1
 40
1.0
176
     1
  0
VISUALSTYLE
  5
9D
102
{ACAD_REACTORS
330
99
102
}
330
99
100
AcDbVisualStyle
  2
GouraudWithEdges
 70
     3
177
     3
291
     1
 70
    58
 90
        2
176
     1
 90
        2
176
     1
 90
        1
176
     1
 90
        2
176
     1
 40
0.6
176
     1
 40
30.0
176
     1
 62
     7
420
 16777215
176
     1
 90
        1
176
     1
 90
        0
176
     1
 62
     7
176
     1
 62
   257
176
     1
 90
        1
176
     1
 90
        1
176
     1
 40
1.0
176
     1
 90
        0
176
     1
 62
   257
176
     1
 40
1.0
176
     1
 90
        1
176
     1
 90
        6
176
     1
 90
        2
176
     1
 62
     7
176
     1
 90
        5
176
     1
 90
        0
176
     1
 90
        0
176
     1
290
     0
176
     1
 90
       13
176
     1
 40
0.0
176
     1
 90
        0
176
     1
290
     0
176
     1
290
     1
176
     1
290
     1
176
     1
290
     0
176
     1
290
     0
176
     1
290
     0
176
     1
290
     0
176
     1
290
     0
176
     1
290
     0
176
     1
 90
       50
176
     1
 40
0.0
176
     1
 40
1.0
176
     1
 90
        0
176
     1
 62
    18
420
        0
176
     1
 90
       50
176
     1
 90
        3
176
     1
 62
     5
420
      255
176
     1
290
     0
176
     1
 90
       50
176
     1
 90
       50
176
     1
 90
       50
176
     1
290
     0
176
     1
 90
       50
176
     1
 62
   256
176
     0
 40
1.0
176
     0
 90
        2
176
     1
  1
strokes_ogs.tif
176
     1
290
     0
176
     1
 40
1.0
176
     1
 40
1.0
176
     1
  0
VISUALSTYLE
  5
A1
102
{ACAD_REACTORS
330
99
102
}
330
99
100
AcDbVisualStyle
  2
Hidden
 70
     6
177
     3
291
     0
 70
    58
 90
        1
176
     1
 90
        2
176
     1
 90
        2
176
     1
 90
        0
176
     1
 40
0.6
176
     1
 40
30.0
176
     1
 62
     7
420
 16777215
176
     1
 90
        2
176
     1
 90
        2
176
     1
 62
     7
176
     1
 62
   257
176
     1
 90
        2
176
     1
 90
        1
176
     1
 40
40.0
176
     1
 90
        0
176
     1
 62
   257
176
     1
 40
1.0
176
     1
 90
        1
176
     1
 90
        6
176
     1
 90
        2
176
     1
 62
     7
176
     1
 90
        3
176
     1
 90
        0
176
     1
 90
        0
176
     1
290
     0
176
     1
 90
        1
176
     1
 40
0.0
176
     1
 90
        0
176
     1
290
     0
176
     1
290
     1
176
     1
290
     1
176
     1
290
     0
176
     1
290
     0
176
     1
290
     0
176
     1
290
     0
176
     1
290
     0
176
     1
290
     0
176
     1
 90
       50
176
     1
 40
0.0
176
     1
 40
1.0
176
     1
 90
        0
176
     1
 62
    18
420
        0
176
     1
 90
       50
176
     1
 90
        3
176
     1
 62
     5
420
      255
176
     1
290
     0
176
     1
 90
       50
176
     1
 90
       50
176
     1
 90
       50
176
     1
290
     0
176
     1
 90
       50
176
     1
 62
   256
176
     0
 40
1.0
176
     0
 90
        2
176
     1
  1
strokes_ogs.tif
176
     1
290
     0
176
     1
 40
1.0
176
     1
 40
1.0
176
     1
  0
VISUALSTYLE
  5
173
102
{ACAD_REACTORS
330
99
102
}
330
99
100
AcDbVisualStyle
  2
JitterOff
 70
    20
177
     3
291
     1
 70
    58
 90
        2
176
     0
 90
        2
176
     0
 90
        0
176
     0
 90
        0
176
     0
 40
0.6
176
     0
 40
30.0
176
     0
 62
     7
420
 16777215
176
     0
 90
        1
176
     0
 90
        4
176
     0
 62
     7
176
     0
 62
   257
176
     0
 90
        1
176
     0
 90
        1
176
     0
 40
1.0
176
     0
 90
       10
176
     2
 62
     7
176
     0
 40
1.0
176
     0
 90
        1
176
     0
 90
        6
176
     0
 90
        2
176
     0
 62
     7
176
     0
 90
        5
176
     0
 90
        0
176
     0
 90
        0
176
     0
290
     0
176
     0
 90
        1
176
     0
 40
0.0
176
     0
 90
        0
176
     0
290
     0
176
     1
290
     1
176
     1
290
     1
176
     1
290
     0
176
     1
290
     0
176
     1
290
     0
176
     1
290
     0
176
     1
290
     0
176
     1
290
     0
176
     1
 90
       50
176
     1
 40
0.0
176
     1
 40
1.0
176
     1
 90
        0
176
     1
 62
    18
420
        0
176
     1
 90
       50
176
     1
 90
        3
176
     1
 62
     5
420
      255
176
     1
290
     0
176
     1
 90
       50
176
     1
 90
       50
176
     1
 90
       50
176
     1
290
     0
176
     1
 90
       50
176
     1
 62
   256
176
     0
 40
1.0
176
     0
 90
        2
176
     1
  1
strokes_ogs.tif
176
     1
290
     0
176
     1
 40
1.0
176
     1
 40
1.0
176
     1
  0
VISUALSTYLE
  5
A7
102
{ACAD_REACTORS
330
99
102
}
330
99
100
AcDbVisualStyle
  2
Linepattern
 70
    14
177
     3
291
     1
 70
    58
 90
        2
176
     1
 90
        2
176
     1
 90
        1
176
     1
 90
        0
176
     1
 40
0.6
176
     1
 40
30.0
176
     1
 62
     7
420
 16777215
176
     1
 90
        1
176
     1
 90
        4
176
     1
 62
     7
176
     1
 62
   257
176
     1
 90
        7
176
     1
 90
        7
176
     1
 40
1.0
176
     1
 90
        8
176
     1
 62
     7
176
     1
 40
1.0
176
     1
 90
        1
176
     1
 90
        6
176
     1
 90
        2
176
     1
 62
     7
176
     1
 90
        5
176
     1
 90
        0
176
     1
 90
        0
176
     1
290
     0
176
     1
 90
        1
176
     1
 40
0.0
176
     1
 90
        0
176
     1
290
     0
176
     1
290
     1
176
     1
290
     1
176
     1
290
     0
176
     1
290
     0
176
     1
290
     0
176
     1
290
     0
176
     1
290
     0
176
     1
290
     0
176
     1
 90
       50
176
     1
 40
0.0
176
     1
 40
1.0
176
     1
 90
        0
176
     1
 62
    18
420
        0
176
     1
 90
       50
176
     1
 90
        3
176
     1
 62
     5
420
      255
176
     1
290
     0
176
     1
 90
       50
176
     1
 90
       50
176
     1
 90
       50
176
     1
290
     0
176
     1
 90
       50
176
     1
 62
   256
176
     0
 40
1.0
176
     0
 90
        2
176
     1
  1
strokes_ogs.tif
176
     1
290
     0
176
     1
 40
1.0
176
     1
 40
1.0
176
     1
  0
VISUALSTYLE
  5
174
102
{ACAD_REACTORS
330
99
102
}
330
99
100
AcDbVisualStyle
  2
OverhangOff
 70
    21
177
     3
291
     1
 70
    58
 90
        2
176
     0
 90
        2
176
     0
 90
        0
176
     0
 90
        0
176
     0
 40
0.6
176
     0
 40
30.0
176
     0
 62
     7
420
 16777215
176
     0
 90
        1
176
     0
 90
        4
176
     0
 62
     7
176
     0
 62
   257
176
     0
 90
        1
176
     0
 90
        1
176
     0
 40
1.0
176
     0
 90
        9
176
     2
 62
     7
176
     0
 40
1.0
176
     0
 90
        1
176
     0
 90
        6
176
     0
 90
        2
176
     0
 62
     7
176
     0
 90
        5
176
     0
 90
        0
176
     0
 90
        0
176
     0
290
     0
176
     0
 90
        1
176
     0
 40
0.0
176
     0
 90
        0
176
     0
290
     0
176
     1
290
     1
176
     1
290
     1
176
     1
290
     0
176
     1
290
     0
176
     1
290
     0
176
     1
290
     0
176
     1
290
     0
176
     1
290
     0
176
     1
 90
       50
176
     1
 40
0.0
176
     1
 40
1.0
176
     1
 90
        0
176
     1
 62
    18
420
        0
176
     1
 90
       50
176
     1
 90
        3
176
     1
 62
     5
420
      255
176
     1
290
     0
176
     1
 90
       50
176
     1
 90
       50
176
     1
 90
       50
176
     1
290
     0
176
     1
 90
       50
176
     1
 62
   256
176
     0
 40
1.0
176
     0
 90
        2
176
     1
  1
strokes_ogs.tif
176
     1
290
     0
176
     1
 40
1.0
176
     1
 40
1.0
176
     1
  0
VISUALSTYLE
  5
A3
102
{ACAD_REACTORS
330
99
102
}
330
99
100
AcDbVisualStyle
  2
Realistic
 70
     8
177
     3
291
     0
 70
    58
 90
        2
176
     1
 90
        3
176
     1
 90
        0
176
     1
 90
        2
176
     1
 40
0.6
176
     1
 40
30.0
176
     1
 62
     7
420
 16777215
176
     1
 90
        0
176
     1
 90
        0
176
     1
 62
     7
176
     1
 62
   257
176
     1
 90
        1
176
     1
 90
        1
176
     1
 40
1.0
176
     1
 90
        8
176
     1
 62
   257
176
     1
 40
1.0
176
     1
 90
        1
176
     1
 90
        6
176
     1
 90
        2
176
     1
 62
     7
176
     1
 90
        3
176
     1
 90
        0
176
     1
 90
        0
176
     1
290
     0
176
     1
 90
       13
176
     1
 40
0.0
176
     1
 90
        0
176
     1
290
     0
176
     1
290
     1
176
     1
290
     1
176
     1
290
     0
176
     1
290
     0
176
     1
290
     0
176
     1
290
     0
176
     1
290
     0
176
     1
290
     0
176
     1
 90
       50
176
     1
 40
0.0
176
     1
 40
1.0
176
     1
 90
        0
176
     1
 62
    18
420
        0
176
     1
 90
       50
176
     1
 90
        3
176
     1
 62
     5
420
      255
176
     1
290
     0
176
     1
 90
       50
176
     1
 90
       50
176
     1
 90
       50
176
     1
290
     0
176
     1
 90
       50
176
     1
 62
   256
176
     0
 40
1.0
176
     0
 90
        2
176
     1
  1
strokes_ogs.tif
176
     1
290
     0
176
     1
 40
1.0
176
     1
 40
1.0
176
     1
  0
VISUALSTYLE
  5
182
102
{ACAD_REACTORS
330
99
102
}
330
99
100
AcDbVisualStyle
  2
Shaded
 70
    27
177
     3
291
     0
 70
    58
 90
        2
176
     1
 90
        2
176
     1
 90
        1
176
     1
 90
        2
176
     1
 40
0.6
176
     1
 40
30.0
176
     1
 62
     7
420
 16777215
176
     1
 90
        0
176
     1
 90
        4
176
     1
 62
     7
176
     1
 62
   257
176
     1
 90
        1
176
     1
 90
        1
176
     1
 40
1.0
176
     1
 90
        8
176
     1
 62
   257
176
     1
 40
1.0
176
     1
 90
        1
176
     1
 90
        6
176
     1
 90
        2
176
     1
 62
     8
420
  7895160
176
     1
 90
        3
176
     1
 90
        0
176
     1
 90
        0
176
     1
290
     0
176
     1
 90
        5
176
     1
 40
0.0
176
     1
 90
        0
176
     1
290
     0
176
     1
290
     1
176
     1
290
     1
176
     1
290
     0
176
     1
290
     0
176
     1
290
     0
176
     1
290
     0
176
     1
290
     0
176
     1
290
     0
176
     1
 90
       50
176
     1
 40
0.0
176
     1
 40
1.0
176
     1
 90
        0
176
     1
 62
    18
420
        0
176
     1
 90
       50
176
     1
 90
        3
176
     1
 62
     5
420
      255
176
     1
290
     0
176
     1
 90
       50
176
     1
 90
       50
176
     1
 90
       50
176
     1
290
     0
176
     1
 90
       50
176
     1
 62
   256
176
     0
 40
1.0
176
     0
 90
        2
176
     1
  1
strokes_ogs.tif
176
     1
290
     0
176
     1
 40
1.0
176
     1
 40
1.0
176
     1
  0
VISUALSTYLE
  5
181
102
{ACAD_REACTORS
330
99
102
}
330
99
100
AcDbVisualStyle
  2
Shaded with edges
 70
    26
177
     3
291
     0
 70
    58
 90
        2
176
     1
 90
        2
176
     1
 90
        1
176
     1
 90
        2
176
     1
 40
0.6
176
     1
 40
30.0
176
     1
 62
     7
420
 16777215
176
     1
 90
        1
176
     1
 90
        2
176
     1
 62
     7
176
     1
 62
   257
176
     1
 90
        2
176
     1
 90
        1
176
     1
 40
1.0
176
     1
 90
        8
176
     1
 62
   257
176
     1
 40
1.0
176
     1
 90
        1
176
     1
 90
        6
176
     1
 90
        2
176
     1
 62
     7
176
     1
 90
        3
176
     1
 90
        0
176
     1
 90
        0
176
     1
290
     0
176
     1
 90
        5
176
     1
 40
0.0
176
     1
 90
        0
176
     1
290
     0
176
     1
290
     1
176
     1
290
     1
176
     1
290
     0
176
     1
290
     0
176
     1
290
     0
176
     1
290
     0
176
     1
290
     0
176
     1
290
     0
176
     1
 90
       50
176
     1
 40
0.0
176
     1
 40
1.0
176
     1
 90
        0
176
     1
 62
    18
420
        0
176
     1
 90
       50
176
     1
 90
        3
176
     1
 62
     5
420
      255
176
     1
290
     0
176
     1
 90
       50
176
     1
 90
       50
176
     1
 90
       50
176
     1
290
     0
176
     1
 90
       50
176
     1
 62
   256
176
     0
 40
1.0
176
     0
 90
        2
176
     1
  1
strokes_ogs.tif
176
     1
290
     0
176
     1
 40
1.0
176
     1
 40
1.0
176
     1
  0
VISUALSTYLE
  5
17E
102
{ACAD_REACTORS
330
99
102
}
330
99
100
AcDbVisualStyle
  2
Shades of Gray
 70
    23
177
     3
291
     0
 70
    58
 90
        2
176
     1
 90
        2
176
     1
 90
        3
176
     1
 90
        0
176
     1
 40
0.6
176
     1
 40
30.0
176
     1
 62
     7
420
 16777215
176
     1
 90
        2
176
     1
 90
        2
176
     1
 62
     7
176
     1
 62
     7
176
     1
 90
        1
176
     1
 90
        1
176
     1
 40
40.0
176
     1
 90
        8
176
     1
 62
     7
176
     1
 40
1.0
176
     1
 90
        1
176
     1
 90
        6
176
     1
 90
        2
176
     1
 62
     7
176
     1
 90
        3
176
     1
 90
        0
176
     1
 90
        0
176
     1
290
     0
176
     1
 90
        1
176
     1
 40
0.0
176
     1
 90
        0
176
     1
290
     0
176
     1
290
     1
176
     1
290
     1
176
     1
290
     0
176
     1
290
     0
176
     1
290
     0
176
     1
290
     0
176
     1
290
     0
176
     1
290
     0
176
     1
 90
       50
176
     1
 40
0.0
176
     1
 40
1.0
176
     1
 90
        0
176
     1
 62
    18
420
        0
176
     1
 90
       50
176
     1
 90
        3
176
     1
 62
     5
420
      255
176
     1
290
     0
176
     1
 90
       50
176
     1
 90
       50
176
     1
 90
       50
176
     1
290
     0
176
     1
 90
       50
176
     1
 62
   256
176
     0
 40
1.0
176
     0
 90
        2
176
     1
  1
strokes_ogs.tif
176
     1
290
     0
176
     1
 40
1.0
176
     1
 40
1.0
176
     1
  0
VISUALSTYLE
  5
17F
102
{ACAD_REACTORS
330
99
102
}
330
99
100
AcDbVisualStyle
  2
Sketchy
 70
    24
177
     3
291
     0
 70
    58
 90
        1
176
     1
 90
        2
176
     1
 90
        2
176
     1
 90
        0
176
     1
 40
0.6
176
     1
 40
30.0
176
     1
 62
     7
420
 16777215
176
     1
 90
        2
176
     1
 90
        2
176
     1
 62
     7
176
     1
 62
     7
176
     1
 90
        1
176
     1
 90
        1
176
     1
 40
40.0
176
     1
 90
       11
176
     1
 62
     7
176
     1
 40
1.0
176
     1
 90
        1
176
     1
 90
        6
176
     1
 90
        2
176
     1
 62
     7
176
     1
 90
        6
176
     1
 90
        0
176
     1
 90
        0
176
     1
290
     0
176
     1
 90
        1
176
     1
 40
0.0
176
     1
 90
        0
176
     1
290
     0
176
     1
290
     1
176
     1
290
     1
176
     1
290
     0
176
     1
290
     0
176
     1
290
     0
176
     1
290
     0
176
     1
290
     0
176
     1
290
     0
176
     1
 90
       50
176
     1
 40
0.0
176
     1
 40
1.0
176
     1
 90
        0
176
     1
 62
    18
420
        0
176
     1
 90
       50
176
     1
 90
        3
176
     1
 62
     5
420
      255
176
     1
290
     0
176
     1
 90
       50
176
     1
 90
       50
176
     1
 90
       50
176
     1
290
     0
176
     1
 90
       50
176
     1
 62
   256
176
     0
 40
1.0
176
     0
 90
        2
176
     1
  1
strokes_ogs.tif
176
     1
290
     0
176
     1
 40
1.0
176
     1
 40
1.0
176
     1
  0
VISUALSTYLE
  5
A6
102
{ACAD_REACTORS
330
99
102
}
330
99
100
AcDbVisualStyle
  2
Thicken
 70
    13
177
     3
291
     1
 70
    58
 90
        2
176
     1
 90
        2
176
     1
 90
        1
176
     1
 90
        0
176
     1
 40
0.6
176
     1
 40
30.0
176
     1
 62
     7
420
 16777215
176
     1
 90
        1
176
     1
 90
        4
176
     1
 62
     7
176
     1
 62
   257
176
     1
 90
        1
176
     1
 90
        1
176
     1
 40
1.0
176
     1
 90
       12
176
     1
 62
     7
176
     1
 40
1.0
176
     1
 90
        1
176
     1
 90
        6
176
     1
 90
        2
176
     1
 62
     7
176
     1
 90
        5
176
     1
 90
        0
176
     1
 90
        0
176
     1
290
     0
176
     1
 90
        1
176
     1
 40
0.0
176
     1
 90
        0
176
     1
290
     0
176
     1
290
     1
176
     1
290
     1
176
     1
290
     0
176
     1
290
     0
176
     1
290
     0
176
     1
290
     0
176
     1
290
     0
176
     1
290
     0
176
     1
 90
       50
176
     1
 40
0.0
176
     1
 40
1.0
176
     1
 90
        0
176
     1
 62
    18
420
        0
176
     1
 90
       50
176
     1
 90
        3
176
     1
 62
     5
420
      255
176
     1
290
     0
176
     1
 90
       50
176
     1
 90
       50
176
     1
 90
       50
176
     1
290
     0
176
     1
 90
       50
176
     1
 62
   256
176
     0
 40
1.0
176
     0
 90
        2
176
     1
  1
strokes_ogs.tif
176
     1
290
     0
176
     1
 40
1.0
176
     1
 40
1.0
176
     1
  0
VISUALSTYLE
  5
A0
102
{ACAD_REACTORS
330
99
102
}
330
99
100
AcDbVisualStyle
  2
Wireframe
 70
     5
177
     3
291
     0
 70
    58
 90
        0
176
     1
 90
        2
176
     1
 90
        0
176
     1
 90
        0
176
     1
 40
0.6
176
     1
 40
30.0
176
     1
 62
     7
420
 16777215
176
     1
 90
        1
176
     1
 90
        4
176
     1
 62
     7
176
     1
 62
   257
176
     1
 90
        1
176
     1
 90
        1
176
     1
 40
1.0
176
     1
 90
        0
176
     1
 62
   257
176
     1
 40
1.0
176
     1
 90
        1
176
     1
 90
        6
176
     1
 90
        2
176
     1
 62
     7
176
     1
 90
        3
176
     1
 90
        0
176
     1
 90
        0
176
     1
290
     0
176
     1
 90
        1
176
     1
 40
0.0
176
     1
 90
        0
176
     1
290
     0
176
     1
290
     1
176
     1
290
     1
176
     1
290
     0
176
     1
290
     0
176
     1
290
     0
176
     1
290
     0
176
     1
290
     0
176
     1
290
     0
176
     1
 90
       50
176
     1
 40
0.0
176
     1
 40
1.0
176
     1
 90
        0
176
     1
 62
    18
420
        0
176
     1
 90
       50
176
     1
 90
        3
176
     1
 62
     5
420
      255
176
     1
290
     0
176
     1
 90
       50
176
     1
 90
       50
176
     1
 90
       50
176
     1
290
     0
176
     1
 90
       50
176
     1
 62
   256
176
     0
 40
1.0
176
     0
 90
        2
176
     1
  1
strokes_ogs.tif
176
     1
290
     0
176
     1
 40
1.0
176
     1
 40
1.0
176
     1
  0
VISUALSTYLE
  5
180
102
{ACAD_REACTORS
330
99
102
}
330
99
100
AcDbVisualStyle
  2
X-Ray
 70
    25
177
     3
291
     0
 70
    58
 90
        2
176
     1
 90
        2
176
     1
 90
        1
176
     1
 90
        1
176
     1
 40
0.5
176
     1
 40
30.0
176
     1
 62
     7
420
 16777215
176
     1
 90
        1
176
     1
 90
        0
176
     1
 62
     7
176
     1
 62
   257
176
     1
 90
        1
176
     1
 90
        1
176
     1
 40
1.0
176
     1
 90
        8
176
     1
 62
     7
176
     1
 40
1.0
176
     1
 90
        1
176
     1
 90
        6
176
     1
 90
        2
176
     1
 62
     7
176
     1
 90
        3
176
     1
 90
        0
176
     1
 90
        0
176
     1
290
     0
176
     1
 90
       13
176
     1
 40
0.0
176
     1
 90
        0
176
     1
290
     0
176
     1
290
     1
176
     1
290
     1
176
     1
290
     0
176
     1
290
     0
176
     1
290
     0
176
     1
290
     0
176
     1
290
     0
176
     1
290
     0
176
     1
 90
       50
176
     1
 40
0.0
176
     1
 40
1.0
176
     1
 90
        0
176
     1
 62
    18
420
        0
176
     1
 90
       50
176
     1
 90
        3
176
     1
 62
     5
420
      255
176
     1
290
     0
176
     1
 90
       50
176
     1
 90
       50
176
     1
 90
       50
176
     1
290
     0
176
     1
 90
       50
176
     1
 62
   256
176
     0
 40
1.0
176
     0
 90
        2
176
     1
  1
strokes_ogs.tif
176
     1
290
     0
176
     1
 40
1.0
176
     1
 40
1.0
176
     1
  0
DICTIONARYVAR
  5
F0
102
{ACAD_REACTORS
330
66
102
}
330
66
100
DictionaryVariables
280
     0
  1
1:1
  0
DICTIONARYVAR
  5
EF
102
{ACAD_REACTORS
330
66
102
}
330
66
100
DictionaryVariables
280
     0
  1
STANDARD
  0
DICTIONARYVAR
  5
89
102
{ACAD_REACTORS
330
66
102
}
330
66
100
DictionaryVariables
280
     0
  1
STANDARD
  0
DICTIONARYVAR
  5
1B7
102
{ACAD_REACTORS
330
66
102
}
330
66
100
DictionaryVariables
280
     0
  1
ASME Y14.35 - 1987
  0
DICTIONARYVAR
  5
1B8
102
{ACAD_REACTORS
330
66
102
}
330
66
100
DictionaryVariables
280
     0
  1
ASME Y14.3 - 2003
  0
DICTIONARYVAR
  5
67
102
{ACAD_REACTORS
330
66
102
}
330
66
100
DictionaryVariables
280
     0
  1
2
  0
DICTIONARYVAR
  5
A9C
102
{ACAD_REACTORS
330
66
102
}
330
66
100
DictionaryVariables
280
     0
  1
4
  0
DICTIONARYVAR
  5
6B
102
{ACAD_REACTORS
330
66
102
}
330
66
100
DictionaryVariables
280
     0
  1
1
  0
DICTIONARYVAR
  5
1767
102
{ACAD_REACTORS
330
66
102
}
330
66
100
DictionaryVariables
280
     0
  1
BYLAYER
  0
DICTIONARYVAR
  5
1766
102
{ACAD_REACTORS
330
66
102
}
330
66
100
DictionaryVariables
280
     0
  1
ByLayer
  0
DICTIONARYVAR
  5
14D
102
{ACAD_REACTORS
330
66
102
}
330
66
100
DictionaryVariables
280
     0
  1
0
  0
DICTIONARYVAR
  5
14E
102
{ACAD_REACTORS
330
66
102
}
330
66
100
DictionaryVariables
280
     0
  1
0
  0
ACAD_PROXY_OBJECT
  5
23B
102
{ACAD_REACTORS
330
23A
102
}
330
23A
100
AcDbProxyObject
 90
      499
 91
      541
 71
    33
 97
      157
 70
     0
162
                 0
161
                84
310
90100057356C1DCF406AAC
 94
        0
  0
DICTIONARY
  5
23C
102
{ACAD_REACTORS
330
23A
102
}
330
23A
100
AcDbDictionary
281
     1
  3
ANSI
350
23D
  0
ACAD_PROXY_OBJECT
  5
218
330
0
100
AcDbProxyObject
 90
      499
 91
      522
 71
    33
 97
      157
 70
     0
162
               234
311
43904010C01340114014C016401340108013C0130014C01240168011400C
161
                34
310
000101420C
330
215
 94
        0
  0
ACAD_PROXY_OBJECT
  5
228
330
0
100
AcDbProxyObject
 90
      499
 91
      533
 71
    33
 97
      157
 70
     0
162
               212
311
421040134010C01540148014C01500110010441004E0053004900C
161
                32
310
0001010100
330
215
 94
        0
  0
ACAD_PROXY_OBJECT
  5
22B
330
0
100
AcDbProxyObject
 90
      499
 91
      533
 71
    33
 97
      157
 70
     0
162
               276
311
431040104010C013C01340140011001180138010401340114010443004F004D005000C
161
                32
310
0001010100
330
215
 94
        0
  0
ACAD_PROXY_OBJECT
  5
22C
330
0
100
AcDbProxyObject
 90
      499
 91
      533
 71
    33
 97
      157
 70
     0
162
               340
311
4390401040118013C0130011001140148011001180138010401340114010646006F006C00640065007200C
161
                32
310
0001010100
330
215
 94
        0
  0
ACAD_PROXY_OBJECT
  5
22D
330
0
100
AcDbProxyObject
 90
      499
 91
      533
 71
    33
 97
      157
 70
     0
162
               260
311
431040104010401380138013C01100118013801040134011401035F0041005600C
161
                32
310
0001010100
330
215
 94
        0
  0
ACAD_PROXY_OBJECT
  5
22E
330
0
100
AcDbProxyObject
 90
      499
 91
      533
 71
    33
 97
      157
 70
     0
162
               756
311
439040104010C013C01340140015801240114015C01300124014C0150012054006F0070000A00460072006F006E0074000A00520069006700680074000A004C006500660074000A0042006F00740074006F006D000A004100750078003100C
161
                32
310
0001010100
330
215
 94
        0
  0
ACAD_PROXY_OBJECT
  5
22F
330
0
100
AcDbProxyObject
 90
      499
 91
      522
 71
    33
 97
      157
 70
     0
162
               234
311
439040134014C014C0150014801040130015C01040164014C013C013800C
161
                26
310
0001018C
330
215
 94
        0
  0
ACAD_PROXY_OBJECT
  5
234
330
0
100
AcDbProxyObject
 90
      499
 91
      536
 71
    33
 97
      157
 70
     0
162
                 0
161
                32
310
0001000000
330
215
340
231
330
235
330
231
 94
        0
  0
ACAD_PROXY_OBJECT
  5
235
330
0
100
AcDbProxyObject
 90
      499
 91
      537
 71
    33
 97
      157
 70
     0
162
               490
311
47948013C013C011800800150014801040138014C012401500124013C01380080012C0124010C012C0080013C015401500080011801300104014C012000C
161
                80
310
0001014140155005540000
330
215
330
234
330
0
 94
        0
  0
ACAD_PROXY_OBJECT
  5
236
330
0
100
AcDbProxyObject
 90
      499
 91
      538
 71
    33
 97
      157
 70
     0
162
                 0
161
               178
310
000100AAAAAA9795C12CE59DCBD125F3B252F2A069A5CC
330
215
330
235
 94
        0
  0
ACAD_PROXY_OBJECT
  5
237
330
0
100
AcDbProxyObject
 90
      499
 91
      539
 71
    33
 97
      157
 70
     0
162
                 0
161
               108
310
000190140A000000000000AAAAAC
330
215
330
238
330
238
330
238
330
238
330
238
330
0
 94
        0
  0
ACAD_PROXY_OBJECT
  5
238
330
0
100
AcDbProxyObject
 90
      499
 91
      540
 71
    33
 97
      157
 70
     0
162
                 0
161
                51
310
00010000AAAA8C
330
215
330
237
330
235
 94
        0
  0
ACAD_PROXY_OBJECT
  5
1550
330
0
100
AcDbProxyObject
 90
      499
 91
      579
 71
    33
 97
      157
 70
     0
162
               378
311
45D04018C01480198010C01BC01B401C001BC01CC01A401D00194010C01D401C801D80194014C01D0018401D0019400C
161
              1519
310
001120C8B8D78F4584C0941880780576FBEE4203204005E0B70034A61DF88126D4E7BA9DA17F22E55ADD0AA100885A011170FE9202F60881000B11D5B0F63517E00448A3A19934C1FC8B89645D66AB55C14804D70B3D826D5822044027050F7D9EE29F8E0464C62FD61A27F22E19E3E5F39C8106200114D18ECBBC20C810A5
310
D9197227D9E07F48B95C3C93C4427824800453463B2EF083205000D2B0D28173C27F22E570F24F1109E092009181C5215A9E168144061F3DE2A1A80A040000
330
215
330
0
330
0
 94
        0
  0
DICTIONARY
  5
20F
102
{ACAD_REACTORS
330
20E
102
}
330
20E
100
AcDbDictionary
281
     1
  3
DWGSETTINGS
350
210
  3
Shaft
350
3D9
  3
TRANSSETTINGS
350
211
  0
ACAD_PROXY_OBJECT
  5
24F
102
{ACAD_REACTORS
330
20E
102
}
330
20E
100
AcDbProxyObject
 90
      499
 91
      558
 71
    33
 97
      157
 70
     0
162
             17838
311
404C0010441004D005F0030009013100411040134017C00C402404C8010441004D005F0032009013300411040134017C00CC02404D0010441004D005F0034009013500411040134017C00D402404D8010441004D005F0036009013700411040134017C00DC02404E0010441004D005F0038009013900411040134017C00E40
311
2408C80104010541004D005F003100300090234004100415040134017C00C400C402409240140010541004D005F003100320090230004E00415040134017C00C0013802408C40138010541004D005F0031004E0090232004E00415040134017C00C8013802408CC0138010541004D005F0033004E0090234004E0041504013
311
4017C00D0013802408D40138010541004D005F0035004E0090236004E00415040134017C00D8013802408DC0138010541004D005F0037004E0090238004E00415040134017C00E0013802408E40138010541004D005F0039004E00903320041004E00419040134017C00C400C001380240CD001040138010641004D005F003
311
10031004E00903490050004E00419040134017C00C400C80138024112C013001240138010541004D005F0043004C0090449004E0046004F00421040134017C01400104014801140118024154801040120013400D4010641004D005F0042004F0052009045600490045005700421040134017C015801240114015C014C02419
311
0801140120012401380110010641004D005F0049004E00560090554005200410049004C00415040134017C015001480240D2001240110010641004D005F00480049004400903560049005300419040134017C01580124014C024194001040148011001240134010941004D005F00500041005200440049004D009065200450
311
04600440049004D00425040134017C01480114011801100124013402430F401D001A401D001B001940080018801B001BC018C01AC010B7400690074006C006500200062006C006F0063006B009083D00610064006400720065007300730041D840190019001C8019401CC01CC02418F401B001BC019C01BC01CC01056C006F
311
0067006F0073009073D0042004F00520044004500520041908013C014801100114014802424F4015801240114015C0140013C014801500108560049004500570050004F005200540090A3D00760069006500770070006F00720074007300425D801A4019401DC01C001BC01C801D001CC02418F4014C010C01040130011401
311
055300430041004C004500904420048004E005600404E40105420048004E00560053004190801140120012401380110010442004F00520032004154801040120013400D4010442004F00520033004154801040120013400D4010442004F00520035004154801040120013400D40104430041004C003200404D001044300410
311
04C003300404D00104430041004C003500404D00104430041004C003700404D00104430045004E004E00404DC0104430045004E005700404DC010443004C0049004E004112C013001240138010443004F004E003100404C0010443004F004E003200404C4010443004F004E003300404C8010443004F004E003400404C8010
311
44400450054004100404D001044400490041004700404D40104440049004C004900404D40104440049004D00500041940010401480110012401340104440049004D00520041948011401180110012401340104460045004D004E00404E00105460045004D0050004E00404E00105460045004D0053005000408D0010401054
311
60045004D0053005400408D001040105460045004D0056004E00404C80105460045004D0056005400404C801044800410054004300404E001044800490044004E00404CC01044800490044005700404CC010448004C0049004E00404D0010448004F0043004E00404DC010448004F0043005700404DC010449004E0046004F
311
004112401380118013C01044C00450041004400404D401064E005F00420048004E005600408E4013801064E005F0043004F004E003100408C0013801064E005F0043004F004E003200408C4013801064E005F0043004F004E003300408C8013801064E005F0043004F004E003400408C8013801064E005F00430045004E004
311
E00408DC013801064E005F00430045004E005700408DC013801064E005F00440049004C004900408D4013801064E005F004800410054004300408E0013801064E005F004800490044004E00408CC013801064E005F004800490044005700408CC013801064E005F004C00450041004400408D4013801064E005F004E004700
311
4900500040D240140013801064E005F005000480041004E0040CD00104013801064E005F00540043004F004E00408C0013801064E005F00540048004C004900408D0013801064E005F0054004C0045004E00408C0013801064E005F00560050004C00490040CC80104013801044E0047004900500040924014001045000410
311
04C0032004154801040120013400D40104500041004C0033004154801040120013400D40104500041004C0035004154801040120013400D401045000480041004E00408D00104010450004F0053004E00404D401045200430047004E00404DC01045200430047005700404DC01045300420052004B00404D00104530045004
311
3005400404D001045300590042003300404D401044D00530059004D00404D40104540043004F004E00404C00104540048004C004900404D0010454004900540032004154801040120013400D4010454004900540033004154801040120013400D4010454004900540035004154801040120013400D4010454004C0045004E0
311
0404C0010554005200410049004C004155001480104012401300104540052004C004900404D001045400580054003100404D801045400580054003200404D801045400580054003300404D801045400580054003500404D801045400580054003700404D8010456004900450057004115801240114015C0104560045004400
311
480040D20012401100104560045004400560040D580124014C0104560050004C004900408C8010401045A0049005A004100404D00104530050004C004900408C8010401013F008
161
              9460
310
425034AE01C00030C011E5C203800030C011E5C201400030C011E5C201800030C010FA00C00030C010FA00C00030C010FA00800030C011EA01000030C010FA00400030C010FA3F400030C0241201C00030C011EA00C00030C010FA01C00030C011E40A01C00030C011EA03800030C011EA01400030C011EA01800030C010FA
310
00C00030C010FA00C00030C010FA00800030C011EA01000030C010FA00400030C010FA3F400030C0241201C00030C011EA00C00030C010FA01C00030C011E40A00400030C010F42601000030C010F42E01C00030C011E42600400030C010F42E3F400030C0243600C00030C010F42601C00030C010F42601C00030C011E426
310
00C00030C010F42601000030C010F42600400030C010FA3E800030C00FDFFFFFFA3FC00030C00FDFFFFFFA3EC00030C00FDFFFFFFA01C00030C011E40A01C00030C011E40A01C00030C00FDFFFFFF409548000000C0003FFFFFFFE8000000C0003FFFFFFFE8010000C30043E8020000C30047A8000000C0003FFFFFFFE8000
310
000C0003FFFFFFFE8020000C30047A8070000C30047A81E0000C3004F28000000C0003FFFFFFFE8000000C0003FFFFFFFE8000000C0003FFFFFFFE8000000C0003FFFFFFFD038000000C0003FFFFFFFD038000000C0003FFFFFFFD038000000C0003FFFFFFFD038030000C30043E8000000C0003FFFFFFFE8000000C0003FF
310
FFFFFE8000000C0003FFFFFFFE8000000C0003FFFFFFFE8000000C0003FFFFFFFE8030000C3003FFFFFFFE8000000C0003FFFFFFFE8030000C30043E8000000C0003FFFFFFFE8030000C30043E8000000C0003FFFFFFFD018000000C0003FFFFFFFD038000000C0003FFFFFFFD038000000C0003FFFFFFFD018000000C0003
310
FFFFFFFE8000000C0003FFFFFFFE8000000C0003FFFFFFFE8000000C0003FFFFFFFE8000000C0003FFFFFFFE8000000C0003FFFFFFFD038000000C0003FFFFFFFD038000000C0003FFFFFFFD038000000C0003FFFFFFFD038000000C0003FFFFFFFE8000000C0003FFFFFFFE8000000C0003FFFFFFFE8000000C0003FFFFFF
310
FD018000000C0003FFFFFFFD038000000C0003FFFFFFFD038000000C0003FFFFFFFE8000000C0003FFFFFFFE8000000C0003FFFFFFFE8000000C0003FFFFFFFD038000000C0003FFFFFFFD018000000C0003FFFFFFFD038000000C0003FFFFFFFE8000000C0003FFFFFFFE8010000C3003FFFFFFFE8020000C3003FFFFFFFE
310
8070000C3003FFFFFFFE8000000C0003FFFFFFFE8000000C0003FFFFFFFE8000000C0003FFFFFFFE8000000C0003FFFFFFFE8070000C300479018000000C0003FFFFFFFD018020000C30047A8020000C3003FFFFFFFE8000000C0003FFFFFFFD038000000C0003FFFFFFFD018010000C30043E8020000C30047A8000000C00
310
03FFFFFFFE8000000C0003FFFFFFFD038000000C0003FFFFFFFE8000000C0003FFFFFFFD018030000C30043E8030000C30043E8000000C0003FFFFFFFE8070000C30047A81E0000C3004F28000000C0003FFFFFFFE8000000C0003FFFFFFFD028000000C0003FFFFFFFD028070000C30047A8000000C0003FFFFFFFD018070
310
000C30047AAAA3F400030C010A4391E4151E4091E4793C41D1E4110F4050F7F64190F40D0F80200C
340
16
340
16
340
16
340
21A
340
16
340
16
340
16
340
21C
340
16
340
16
340
21B
340
21B
340
16
340
16
340
16
340
16
340
21A
340
16
340
16
340
16
340
21C
340
16
340
16
340
21B
340
21B
340
16
340
253
340
16
340
16
340
16
340
16
340
16
340
21A
340
16
340
16
340
16
340
16
340
16
340
16
340
16
340
16
340
16
340
16
340
15
340
15
340
15
340
15
340
15
340
15
340
15
340
15
340
15
340
259
340
15
340
15
340
15
340
15
340
15
340
15
340
16
340
15
340
15
340
15
340
15
340
15
340
15
340
16
340
15
340
15
340
15
340
15
340
25A
340
15
340
15
340
259
340
15
340
15
340
15
340
15
340
15
340
15
340
15
340
15
340
259
340
15
340
15
340
15
340
25A
340
15
340
15
340
15
340
15
340
15
340
25A
340
15
340
15
340
15
340
16
340
16
340
16
340
15
340
15
340
259
340
15
340
15
340
15
340
15
340
15
340
15
340
25A
340
15
340
15
340
15
340
15
340
15
340
15
340
15
340
15
340
15
340
15
340
15
340
15
340
15
340
15
340
21B
340
25B
340
21B
 94
        0
  0
ACAD_PROXY_OBJECT
  5
40B
102
{ACAD_REACTORS
330
406
102
}
330
406
100
AcDbProxyObject
 90
      499
 91
      570
 71
    33
 97
      157
 70
     0
162
               434
311
451100124013401140138014C0124013C013800B00104013401100150017C00A8017C01100124013401012A00404A801012A00404A800C
161
                11
310
43EC
 94
        0
  0
ACAD_PROXY_OBJECT
  5
40A
102
{ACAD_REACTORS
330
406
102
}
330
406
100
AcDbProxyObject
 90
      499
 91
      570
 71
    33
 97
      157
 70
     0
162
               290
311
404A8010B41004D005F004600450041002D0041004D005F002A00404A801012A00404A800C
161
                11
310
43EC
 94
        0
  0
ACAD_PROXY_OBJECT
  5
407
102
{ACAD_REACTORS
330
406
102
}
330
406
100
AcDbProxyObject
 90
      499
 91
      570
 71
    33
 97
      157
 70
     0
162
               194
311
4152001040150010C012001012A00404A801012A00404A800C
161
                11
310
43EC
 94
        0
  0
ACAD_PROXY_OBJECT
  5
408
102
{ACAD_REACTORS
330
406
102
}
330
406
100
AcDbProxyObject
 90
      499
 91
      570
 71
    33
 97
      157
 70
     0
162
              1026
311
41130012401380114012738002C0038004E002C002A002D0038002C002A002D0038004E002C0041004D005F0038002C0041004D005F0038004E002C002A002D0041004D005F0038002C002A002D0041004D005F0038004E00404A801012A00441240138014C01140148015000B0014C01500110014001040148015000C8011
311
000C
161
                11
310
43EC
 94
        0
  0
ACAD_PROXY_OBJECT
  5
40C
102
{ACAD_REACTORS
330
406
102
}
330
406
100
AcDbProxyObject
 90
      499
 91
      570
 71
    33
 97
      157
 70
     0
162
               290
311
40D040148010C010441004D005F003500404A801013200419240138014C01140148015000C
161
                11
310
43CC
 94
        0
  0
ACAD_PROXY_OBJECT
  5
409
102
{ACAD_REACTORS
330
406
102
}
330
406
100
AcDbProxyObject
 90
      499
 91
      570
 71
    33
 97
      157
 70
     0
162
              2242
311
61504010C01340118010C0118014801040134011400B00104010C013401100104015001540134015001040148011C0114015000B00104010C0134011001040150015401340124011000B00104010C0134015C011401300110014C0164013400B00104010C0134014C015401480118014C0164013400B00104010C013401180
311
114010401500124011000B00104010C0134014001040148015001480114011800B00104010C01340108010401300130013C013C013800B0010401340110015001140110011C0114014C0164013400B001040134011C014C010C01480114015C010C01040130010C0150010401080130011400B00104010C013401340104014
311
8012C014C015001040134014001012A00404A801012A00404A800C
161
                11
310
43EC
 94
        0
  0
FIELD
  5
E3E
102
{ACAD_REACTORS
330
E3D
102
}
330
E3D
100
AcDbField
  1
_text
  2
%<\_FldIdx 0>%
 90
        1
360
E74
 97
        0
 91
       63
 92
        0
 94
       13
 95
        2
 96
        0
300

 93
        1
  6
ACFD_FIELDTEXT_CHECKSUM
 93
        2
 90
        2
140
1234.0
 94
        0
300

302

304
ACVALUE_END
  7
ACFD_FIELD_VALUE
 93
        3
 90
        0
 94
        0
300

302

304
ACVALUE_END
301

 98
        0
  0
DICTIONARY
  5
194
330
22
100
AcDbDictionary
280
     1
281
     1
  0
DICTIONARY
  5
188
330
97
100
AcDbDictionary
280
     1
281
     1
  3
FBXASSET
360
189
  0
DICTIONARY
  5
186
330
96
100
AcDbDictionary
280
     1
281
     1
  3
FBXASSET
360
187
  0
DICTIONARY
  5
110
330
98
100
AcDbDictionary
280
     1
281
     1
  3
BUMPTILE
360
112
  3
DIFFUSETILE
360
111
  3
FBXASSET
360
18A
  3
OPACITYTILE
360
113
  3
REFLECTIONTILE
360
114
  0
DICTIONARY
  5
274
330
273
100
AcDbDictionary
280
     1
281
     1
  3
ACAD_FIELD
360
275
  0
DICTIONARY
  5
104
330
87
100
AcDbDictionary
280
     1
281
     1
  3
ACAD_ROUNDTRIP_2008_TABLESTYLE_CELLSTYLEMAP
360
207B
  0
ACAD_PROXY_OBJECT
  5
23D
102
{ACAD_REACTORS
330
23C
102
}
330
23C
100
AcDbProxyObject
 90
      499
 91
      542
 71
    33
 97
      157
 70
     0
162
              3734
311
411040138014C01240243904018C01B4014C01D401C801980150019401E001D0014C01D001900109410063006D0046004300460053007400640043504018C01B4015C019401B0019001A401B8019C014C01D001900108410063006D004900640053007400640042D04018C01B40110018401D001D401B4014C01D001900109
311
410063006D0042004F004D005300740064004410401B4019001D00110019401D0018401A401B0014C01E401B4014C01D00190011141006D0064007400530065006300740069006F006E00530079006D005300740064004450401B4019001D0010C019401B801D0019401C8013001A401B80194014C01D00190011141006D00
311
640074005400680072006500610064004C0069006E00650053007400640042D0401B4019001D0013801BC01D00194014C01D00190010B410063006D00540061007000650072005300740064004350401B4019001D0010401B8015801A4019401DC014C01D00190010B4100630041006D0067004C0061007900530074006400
311
42D04018C010401B4019C011001A401B4014C01D0019001114100630041006D00670048006F006C0065004300680061007200740053007400640043504018C010401B4019C015001A401D001B00194014C01D0019000
161
               725
310
73CB81E85EB51B8BE3F8000000C00040540600800030C0200000030000B81E85EB51B8BE3F495222812028120281202812028120281202812048120481202812028120281202812028120281202812028120280A04809FFFE7FFFC
340
11
360
23E
360
23F
360
240
360
241
360
242
360
243
360
244
360
268
360
245
360
267
360
246
360
247
360
248
360
249
360
24A
360
24B
360
24C
360
265
360
266
340
24D
340
0
340
15
340
15
 94
        0
  0
ACAD_PROXY_OBJECT
  5
210
102
{ACAD_REACTORS
330
20F
102
}
330
20F
100
AcDbProxyObject
 90
      499
 91
      518
 71
    33
 97
      157
 70
     0
162
              4140
311
42D10015C011C014C01140150015001240138011C014C0109430041004E00470041005200520041005900420CC00C001F000D000D401F000D800C00106430045004E0041004E004700424D000D401F000E400C001F000C400CC00D40106430045004E0044004900410041D0C01140138011001240104014C010B30002E0035
311
007C0031002E0030007C0031002E00350041D0C0114013801100124014C01500106430045004E004C0045004E004190C01140138013C01180118010E4300480041004D00460045005200440049004D004D004F00440045004550C0120010401340118011401480110012401340134013C01100114011001140118010401540
311
1300150010943004C0049004E0041005200520041005900438C000B800C400C800D401F000C000B800C800D401F000C000B800D4010843004C0049004E004500540059005000415600130012401380114010944005700470055005300430041004C00450041D300104014C0150013C0108012801013000421340104012C011
311
4015801240114015C010650005300430041004C00450041948011401580124014C0124010130004154C010C010401300114010331003A00310042550012401340114014C01500104013401400107560045005200530049004F004E00414C400D400B800C000C001107B00440057004700530045005400540049004E0047005
311
30045004E0044007D00C
161
               572
310
40682A0A940000000000001C07E82A50000000000000601FA50000000000000701FA50000000000000701FA7F27F20A82A50A0A9FA040C008000105415281863D27899905CD0505C
 94
        0
  0
ACAD_PROXY_OBJECT
  5
3D9
102
{ACAD_REACTORS
330
20F
102
}
330
20F
100
AcDbProxyObject
 90
      499
 91
      518
 71
    33
 97
      157
 70
     0
162
               356
311
4154C01A00184019801D001107B00440057004700530045005400540049004E004700530045004E0044007D00C
161
                11
310
404C
 94
        0
  0
ACAD_PROXY_OBJECT
  5
211
102
{ACAD_REACTORS
330
20F
102
}
330
20F
100
AcDbProxyObject
 90
      499
 91
      518
 71
    33
 97
      157
 70
     0
162
              1382
311
43550014801040138014C014C01140150015001240138011C014C0112440052004100570049004E0047005400520041004E0053004C004100540049004F004E004353C01480124011C012401380104013001300164017C013C0138010A53004F0055005200430045004C0041004E00470040D1401380154010955005000520
311
0450053004500520056004500441EC0110015C011C014C01140150015001240138011C014C01140138011001F400
161
               126
310
4060C008000418010000A0A0C0080000
 94
        0
  0
FIELD
  5
E74
330
E3E
100
AcDbField
  1
AcObjProp.16.2
  2
\AcObjProp.16.2 Object(%<\_ObjIdx 0>%).CustomScale \f "%sn"
 90
        0
 97
        1
331
9A0
 91
       63
 92
        0
 94
       59
 95
        2
 96
        0
300

 93
        2
  6
ObjectPropertyId
 93
        2
 90
       64
330
9A0
 94
        0
300

302

304
ACVALUE_END
  6
ObjectPropertyName
 93
        2
 90
        4
  1
CustomScale
 94
        0
300

302

304
ACVALUE_END
  7
ACFD_FIELD_VALUE
 93
        4
 90
        2
140
0.6666666668536818
 94
        0
300
%sn
302
1"-1.5"
304
ACVALUE_END
301
1"-1.5"
 98
        7
  0
XRECORD
  5
189
102
{ACAD_REACTORS
330
188
102
}
330
188
100
AcDbXrecord
280
     1
 70
     1
 90
429727718
  1
508B35C9-AEE7-456F-BE74-D52651303AC6
310
504B03040A0000080000B670623B3DEE336E79000000790000001B0000006175746F6465736B2D64657369676E2D7061636B6167652E786D6C3C3F786D6C2076657273696F6E3D22312E302220656E636F64696E673D227574662D3822203F3E3C666F726D6174733E3C666F726D61743E687474703A2F2F736368656D612E
310
6175746F6465736B2E636F6D2F64657369676E2D7061636B6167652F323030393C2F666F726D61743E3C2F666F726D6174733E504B0304140006080800B670623BD486FD9CA0000000F4000000130000005B436F6E74656E745F54797065735D2E786D6C7D8EC10E82300C865F65E91D8A1E8C310C0EEA1BF002731658846E
310
D98AC1B77784ABF1D8FE5FBFBF75BBCE937A534CCEB38643598122B6FEE978D0B0485F9C41B54DDD7D022595594E1A469170414C76A4D9A4D207E29CF43ECE46F218070CC6BECC4078ACAA135ACF422C856C0E68EA1BF5669944DDD7BCDE7B1F8E415D77AECB980613C2E4AC91FC167A2B244592486606FC29C8FD7F045B9A
310
EF7053A7E60B504B0304140006080800B670623B28ED286BEB0000007C01000008000000636F72652E786D6C8D90416EC3201045AF82665B6183218D6D61A254764FD00B204C5C94182C03558F5F9C3852BBEB6A467FFE9B197D71FA9E6FE8CBACC17AD7012D0820E3B41FAD9B3A48F1826B40272956EFE32F1B20A766D3C1
310
268314D3EAD3B24BDABB685CCCAAF3A3D94515828980F42D371D04FD696655A814B3235C8B45E9AB9A4C419F5D8653B2237A1CB163DE672FD6AC209BF3C08E0D1B30EB19C3FC9D72FCC6EB231EFA33EDE96BDD341517E5064B11EDFCBCAF57A3A2194156843498524CAA0FCA5B7268F9E185D42D21A2DCEC7FA0B48CFF8492
310
759155FBBB0F2C80A4F991FB408A72CB22977B50B96EB9C91F504B0304140006080800B670623B55019EA25F0000007C00000007000000636E782E786D6C4DCB3B0E80201045D1AD90E915ED2CF8AC45050C11660C8261F98AB1B07AC9C97D42D718D865D3E909258CFD00CCE24AC6E326A164D74DC0B4128928FF32603847
310
2BA13128B1252AC747C6BAB984FC68F0B87FE8960A5C09FE86CFB69FBA01504B0304140006080800B670623B7BC41AC871010000D40300000C0000006662782F636F72652E786D6CC553ED6E8320147D15C2DF4501B56B6D90A64BBB27D80B50A5CE54C120983EFEAE1F4DD7A56BBA5FF3879273EEE59E7310BE393735EA95
310
ED2AA333CC428A91D2B9292A5D66D8BB63B0C26823B835C67D2BC348CB46657880B1E0A535BE9DA1DC68A7B403549B42CDA0EC3AE530CA6B5864B8CB3F552343E91D5474A7B095F949962A6421D0502778E72C0840D390E18DC5F170E664C205F7BE2A66B62A605A75AC94C522DDEEE3651AEF837817C741F2CE92E02D592D
310
83FD6ECB76EC7595A651C2C9D02CB8AB9A8BBADC2AE954814544691A3016D0E883256BBA58278B17BA5A53CAC9507ED3E4DBE2C9265F691747B3DCA9ADC382819091F8E1162272A8933DE82182932144F88C09DF060D8140C84E1EEA8B8F1340BDCA9DB1093085F157AA97B557309586747CD0EF0B4EA64E983A6E0EAEEFCE
310
889E9EF17847386AA94B30211D2C0FDE0D3AF9A4610EAD5536E8DD1969631B593F67E381C33F5157F17725E5A636F6BF1491F980C8FC7B90E13E8A2F504B0304140006080800B670623B70102A487D0000009D0000000B0000006662782F636E782E786D6C4DCCD10A83201886E15B91FFDC95A5C30335ACCDFB886521330D
310
A76397BF1A1DECE883878F57749FD5A3B74D2F17830472A901D9F088930B8B849267CC01754AA418F3DF0D5018572BE160506249B16C274D761E8BCFBB7A179E27F65CB39A0F14D396184C9921B81F34C3ACA1B4B99ABB6E6F062A25AA5F69DF23ACBE504B0304140006080800B670623B3610CA3329010000120200003100
310
00006662782F42384135303843342D343331462D343546312D424341352D3532343432364645413344462F636F72652E786D6C8D515B6EC32010BC0AE22B55850D0E446E848992B43E412FE000495162B07854397EA176A4F62F3F2C9A9D991D58BEBB8F37F0AD7D30CE76905418026DA553C65E3A98E219B510EC04F7CEC5
310
3F3408EC30EA0E16180A7EF12E4D0B249D8DDAC68C5AA7F4020E21E80881BCE54B0783FCD2E3500D296646B856D320AFC34557A4CAEDCC133C449F0380794839A138B47B86DB2345744D7A44594FD0E1B867883594369BFE63BF7EEF793D0B054FC9A8456E548E63CE46FB674D8A58F068C6477CE9F510B582A2C1F80D1182
310
70F349E816B32D65AFB8DD62CCEB42FF274A937A52948C8DEB66893BCB021484D7734370E5D2E9F608A3EF93F3119479ABA0E50B14B8C298119A43CCC4FCFCECB8A18B6388CEE7EF5D5D4F994BD86CBBA182D76543B9FCAE2FD7B24DF103504B0304140006080800B670623B1B8617914E0100003303000030000000666278
310
2F42384135303843342D343331462D343546312D424341352D3532343432364645413344462F636E782E786D6CD593C16EC32010447F0571AD6CE3D489D20813A9877E410FBD62D82434182CC055F3F75D1292E692438FBD206B7698593D61BEFD1E2DF982108D773D6D6B460938E5B571FB9ECE6957AD29D90A1EBC4F7736
310
4A9C1CA1A759A682EF839FA72269D8C9D92654AD71C72206887E0E0A22CAF926B15E498B01E0AA19451807D01A34B919F16B070157417138917400F2F6FA41FCF0092A45DEE414C19BDC21783E4BD39D891265658C3D8DEA00A3ACE59CBC8678ACB54CB26EEB6BD7839D7E9348BE70AD9C8321B9BCA7F9A4A26C542347DEE0
310
50F09802D22BA6749A800A394DD62899107273365E3C82CFC6A55557BC06C10774B7ABE7AEC3B0F34CF06446280E154026D0542C187BA9DAB6628BF7B6DBB0E5A65B3EB1F58631DE64BBE083F7B65CC218087E22CABB042E51D1F2268F1FE12B3EA24D40D63E9CFE00120194D60B9D5BC67FE6D39CDF37E20AF817881F504B
310
0304140006080800B670623BBFEF2E3B690500003C100000340000006662782F42384135303843342D343331462D343546312D424341352D3532343432364645413344462F6F626A656374732E786D6CAD575D739B3814FD2B0CFB0C98D84E931D4227B6938EA793B6534F3BFB90198F0099B001899144EAECAFDF231018B0
310
D37A3FFC609090EEE7B94757C1FB7D915B2F54C88CB31BDB7727B64559CC938CA53776A576CE956DBD0F03C1B9EA2DB32D460A7A63EB693B0C52C1ABD24C257447AA5C8D66EF177F5832A68CDA569C13296F6C193FD182B8A4523CA1F2D94D88226EBADBBBBEDB2C1C8A4D05299F46424B222853B014F30C52ACC6287F389C
310
D85E1878FA7B18E87FB36AFAF62AAFF667A83F635211161F291B8999FAB3D5DDC5FCDA99CF6653677679E13B8BFBC5CAF1DF4D27CBCBE5F2FAF6EE1A8AA51290642C117467871F101B91C581D77CEA2C36869F3229E68CD1B8F61F1ED6361B89092D294B90C78C4A68EB793D190E7D1D9BDEE7A91E1B95FDE9F3BCEAEFE809
310
6A6D6F9F7D4B79F4275C90E7A04248AA51D5C4C738DAE06F72885AC4796EBE65D22A88A22223B995679120E2D50EB1542F098381188D4EA111AE3DB043FF20AF6F2B4AE3D7D83D65E5AECA730D4D3BAC91BD05FEA992B565D95F549CD6069B90AB2A63EACA38A45E4B6A87D781574F86817E4C2FCCC72690D62E2729520E37
310
9BAF234797BAF6D62B3BFC781FED37BA1E4F2B2F052FA9501A3E80569BB8F6A9A364D4FA67654E6F803383981F82F21591FF84F23D9882BC896C3FDBCF8C162508933B2E0AE4C69DD43F6BD2BE38DDDBF10BF86CB4FA784D37F3AF16075E67EC9030DECA1FC0A55373F5DFF3378C591FA9BDF485C10B0A8C8BA909E5262639
310
A8E72163488806A595734C81CB77D1DE0ED7604A303B76913CEC0272F412782FF88EFF4636D8AA56DF7B322474C4B767303F625997056C7B032C473C592B36CEBD15F3F9FF5233B7ABCDC74D257624A60F8658567497B14CE1EC3C80B76FD02011038F9EE9EB0F2E12387A9C844D3F09855125116D1D731DF8B43D2CF4E0A0
310
79A020C6BE946BCE0B7EA1E1219331CD73C228AF5A2DDD31A4B1DA918CE91350854D40A71723140BFA92E94E62B0626016CEFA5864A50E5977E8753CEDBEE1CBB7F52780D20E17AF0BA0F5F9B02A3AD07DCC732EB6D1EBB661421BE0C39E21BABF0FE16D22EA6929407C8DE596724C88B749B6DB5512BC7B228ADFD7CB7EA6
310
3A22397E690BA8D5D8D4E40CEC8CDA23C2C0B7D5898640101CEC9C6D331CE328CB93CAFBBAC70A642DF70DF95155945B52F08AA973C23469FD69ADEF84F7BB18F983A8F8C90E37F5D35980B2139A1C523540813E824EF83448CF7C72B598CE97D7CEEDDDDD3B6736BFBC771677EF66CE6A7E7139F7A793E9EDF2B2B3A8B624
310
0CDA13AA5F8388264EC4A0129909F3B7F5A16CEDF08128E97D680ACA4B9BE7B7B58BB638F0B00700EF36AE8B32A705658A68F83EE897FC2B41573190D1CCAF0B92D233A47CFEB019D9809933F67DD1A5467F8CF69AD9A5AE859342D45355448C64F968A371DC2D596ADC6E43D93D1B466F877A64E2893E54F23C4B40388995
310
525E5005DA3983ED45412510D3EFCA13737B3863F74BD30F2A12E5B4B5E489A025CE25500DB855B11ACE5BBFA185D35DD48D8DC3CE7DC69F2944DB42AA6F6CF09BCA622ADD08C7A36E7C6AE18000BAB08E040135C2D21C9D75B3A91B77BB746C403F38018DFE6EC939DD92F16B40BC05294B9CDA035AAD6D330AE27FE4786B
310
8E45145EA34A75BE1C263A676A35A8ACC6297337400BF16C54EF515F3F77CB77EB3583889C754FFA29081AA98E2222ADEF05DA3E63D2EDEA8B8756C05A7FB6CABC4A91CBF325398202CC952E70A008A830324BA200D5E5EF8F5F04C75DB4B0EE3340E071C98B823333B83577596BF3849B69F2085AA0FAFA212F26BEFF5877
310
FDE622B28D88A42E49E43326DA82D31E8CB006401E1DA726059ECEC168F97A6599036306A135688F9AD2E61A6EA178F4CD51974A9F2CCB9F36FE5EBD14601068D9C3BF01504B0304140006080000B670623B000000000000000000000000350000006662782F42384135303843342D343331462D343546312D424341352D35
310
32343432364645413344462F76657274696365732E62696E504B0304140006080800B670623BF270F1330600000004000000360000006662782F42384135303843342D343331462D343546312D424341352D3532343432364645413344462F747269616E676C65732E62696E636660600000504B0304140006080000B67062
310
3B000000000000000000000000370000006662782F42384135303843342D343331462D343546312D424341352D3532343432364645413344462F617474726962757465732E62696E504B0304140006080800B670623B08DA0BD19000000041010000360000006662782F42384135303843342D343331462D343546312D4243
310
41352D3532343432364645413344462F6469726563746F72792E786D6C858F410AC3201045AF22B36F53E9A60B35CBEEBAE80D244E44489C6234F4F835464A48035D0DF398FF9F8AF63D0E6CC63039F212F8F9020C7D47C6792B21C5FE7403D62A1188E2E60C98D7234A5830286103A55745067B9D86B8A3CF9C7F90C11DE6
310
07FB144396D7B6A82D282E9A152AD114D5EF2CB866EEE831B8EEA07A7BB5A8D7D61A2BAAEB7FD5F70921FF497D00504B0304140006080800B670623B3B4606F3FE000000A00100003B0000006662782F42384135303843342D343331462D343546312D424341352D3532343432364645413344462F7265736F75726365732F
310
636F72652E786D6C8D504B6E833010BD0A9A6D65B08134808CA354A427E8052C332156828DFCA97AFC9A40A576D7CDCCE87D344F8F9FBEE647F689CE6B6B7A6039850C8DB2A336530F315C4903D94970676DF82583CCC8197B5861107C72362E3BA4AC096842428D1D7107A5F71820538F74F4E0D50D6799CB1892C2DFF345
310
AABB9C306779A2934E701F5C0A906D4FD609C2A1B7D129F4BCD858C163D4E3AED163FAA9AF1A1D88F67CA98E6D35906AA82A52BFB39ABCD5CD915C86331BD86BD3B665CD8BD52C78D0F34F46E550061C419494B6843142CB0F5677F4D0D58717DA7494F26295FF31C565FCA7296A13AA728FBBD93C0896823C09C18BB5AFB4
310
9E65A6BD762BBE01504B010214000A0000080000B670623B3DEE336E79000000790000001B00000000000000000000000000000000006175746F6465736B2D64657369676E2D7061636B6167652E786D6C504B01021400140006080800B670623BD486FD9CA0000000F40000001300000000000000000000000000B2000000
310
5B436F6E74656E745F54797065735D2E786D6C504B01021400140006080800B670623B28ED286BEB0000007C010000080000000000000000000000000083010000636F72652E786D6C504B01021400140006080800B670623B55019EA25F0000007C000000070000000000000000000000000094020000636E782E786D6C50
310
4B01021400140006080800B670623B7BC41AC871010000D40300000C00000000000000000000000000180300006662782F636F72652E786D6C504B01021400140006080800B670623B70102A487D0000009D0000000B00000000000000000000000000B30400006662782F636E782E786D6C504B01021400140006080800B6
310
70623B3610CA3329010000120200003100000000000000000000000000590500006662782F42384135303843342D343331462D343546312D424341352D3532343432364645413344462F636F72652E786D6C504B01021400140006080800B670623B1B8617914E010000330300003000000000000000000000000000D10600
310
006662782F42384135303843342D343331462D343546312D424341352D3532343432364645413344462F636E782E786D6C504B01021400140006080800B670623BBFEF2E3B690500003C10000034000000000000000000000000006D0800006662782F42384135303843342D343331462D343546312D424341352D35323434
310
32364645413344462F6F626A656374732E786D6C504B01021400140006080000B670623B0000000000000000000000003500000000000000000000000000280E00006662782F42384135303843342D343331462D343546312D424341352D3532343432364645413344462F76657274696365732E62696E504B010214001400
310
06080800B670623BF270F133060000000400000036000000000000000000000000007B0E00006662782F42384135303843342D343331462D343546312D424341352D3532343432364645413344462F747269616E676C65732E62696E504B01021400140006080000B670623B00000000000000000000000037000000000000
310
00000000000000D50E00006662782F42384135303843342D343331462D343546312D424341352D3532343432364645413344462F617474726962757465732E62696E504B01021400140006080800B670623B08DA0BD1900000004101000036000000000000000000000000002A0F00006662782F42384135303843342D3433
310
31462D343546312D424341352D3532343432364645413344462F6469726563746F72792E786D6C504B01021400140006080800B670623B3B4606F3FE000000A00100003B000000000000000000000000000E1000006662782F42384135303843342D343331462D343546312D424341352D3532343432364645413344462F72
310
65736F75726365732F636F72652E786D6C504B0506000000000E000E0080040000651100000000
  0
XRECORD
  5
187
102
{ACAD_REACTORS
330
186
102
}
330
186
100
AcDbXrecord
280
     1
 70
     1
 90
429727718
  1
887D55A9-D0DD-414E-B741-A7DCD4DA2B4C
310
504B03040A0000080000B670623B3DEE336E79000000790000001B0000006175746F6465736B2D64657369676E2D7061636B6167652E786D6C3C3F786D6C2076657273696F6E3D22312E302220656E636F64696E673D227574662D3822203F3E3C666F726D6174733E3C666F726D61743E687474703A2F2F736368656D612E
310
6175746F6465736B2E636F6D2F64657369676E2D7061636B6167652F323030393C2F666F726D61743E3C2F666F726D6174733E504B0304140006080800B670623BD486FD9CA0000000F4000000130000005B436F6E74656E745F54797065735D2E786D6C7D8EC10E82300C865F65E91D8A1E8C310C0EEA1BF002731658846E
310
D98AC1B77784ABF1D8FE5FBFBF75BBCE937A534CCEB38643598122B6FEE978D0B0485F9C41B54DDD7D022595594E1A469170414C76A4D9A4D207E29CF43ECE46F218070CC6BECC4078ACAA135ACF422C856C0E68EA1BF5669944DDD7BCDE7B1F8E415D77AECB980613C2E4AC91FC167A2B244592486606FC29C8FD7F045B9A
310
EF7053A7E60B504B0304140006080800B670623BBC1638F5EC0000007C01000008000000636F72652E786D6C8D90416EC3201045AF82665B61836BE2D8C24471DB9CA01740401C94182C03558F5F9C3852BBEB6A467FFE9B197D7EF89E6EE8CB2CC17AD7032D0820E394D7D68D3DA478C67B4007C117EFE32F1B202727D3C3
310
2A83E0E3E2D3BC49CABB685CCCAAF3DA6CA20CC14440EA969B1E82BA98491632C5EC08D76296EA2A4753D06797E194AC468F2356E77DF66CCD02825543D50CACC62D39ED70FDC68EB8FD68F6F8787A6784342D1DDA1D2F5758F068A7E77DB518198D065111D2624A31A93E69DD11D6D5EC85EC3B4278B9DAFF4069D6FF8492
310
75F1B5DADE7D600104CD8FDC0782976B16B9DC83CA75CD4DFC00504B0304140006080800B670623B55019EA25F0000007C00000007000000636E782E786D6C4DCB3B0E80201045D1AD90E915ED2CF8AC45050C11660C8261F98AB1B07AC9C97D42D718D865D3E909258CFD00CCE24AC6E326A164D74DC0B4128928FF326038
310
472BA13128B1252AC747C6BAB984FC68F0B87FE8960A5C09FE86CFB69FBA01504B0304140006080800B670623B3586FFB671010000D40300000C0000006662782F636F72652E786D6CC553ED6E8320147D15C2DF4541A76D6D90A6DDD627D80B50A4CE54C120983EFEAE1F4DD7A55BBA5FF3879273EEE59E7310B6393735EA
310
95ED2AA3731C851423A5A5292A5DE6D8BB63B0C268C39935C67D29C3488B46E578803167A535BE9D2169B453DA01AA4DA16650749D7218C91A1639EEE4876A4428BC838AEE14B6429E44A9C228041AEA38EB9C0501681A32BC313F1ECE8C4C3867DE57C5CC56054CAB8E95B298A7F12E5EEED224C8E87E11242FE936C8DE96
310
AB60BB7F4D295D66D12E5B30323473E6AAE6A24E5A259C2A308F29CD82280A68FC1E256B9AAE93F489AED694323294DF34F9B678B0C957DA3DC7B3DCA9ADC33C022123F1CD2D44E450277AD04338234388F01913BE0D1A0281909D38D4171F27807A259DB1093085F157AA17B557309586747CD0CF0B46A64E983A6E0EAEEF
310
CE881F9EF1FB8E70D44297604238581EBC1B74B249C31C5AAB6CD0BB33D2C636A27ECCC62F0EFF445DC5DF95244D6DEC7F2922F30191F9F720C37DE49F504B0304140006080800B670623B4220A0FF7D0000009D0000000B0000006662782F636E782E786D6C4DCCD10A83201886E15B91FFDCE542CB0335D0EC3E6259C84A
310
C3E9D8E5AF46073BFAE0E1E315DD675BD1DBA5978F41C2FD4600B9F088930F8B849267CC01754AA418F3DF0D50183727E164506249B1EC174D6E1ECB9A0F5D7D785E68DB8151CD286E5A5363CA6B8A39E90D36D40E96B086F55A43A544F52B1D7B86D517504B0304140006080800B670623B2FA3FEDE290100001202000031
310
0000006662782F45374635344235342D363743322D343832342D383044432D4334454645303536354442422F636F72652E786D6C8D515B6EC32010BC0AE22B55850D2E386E848994D7097A0117488A1283C5A3CAF10BB523B57FF961D1ECCCECC0F2ED7DBC816FED8371B687A4C210682B9D32F6D2C314CFA883602BB8772E
310
FEA141608751F7B0C050F08B77695A20E96CD43666D43AA5177008414708E42D5F7A18E4971E876A483133C2B59A06791D2EBA22556E679EE021FA1C00CC43CA09C5717D6274C7286AD7FB06D1AEA1A8C3873DDAD3E3E98859CB0EBB1DAF67A1E02919B5C88DCA71CCD968FFAC49110B1ECDF8882FBD1EA256503418BF2342
310
106E3E08DD60B6A1EC15771B8C795DE8FF4469524F8A92B1F1AD59E2CEB20005E1F5DC105CB9F4797B84D1F7C9F908CABC55D0F2050A5C61CC1AD2F27A26E6E767C7962E8E213A9FBF7775FDCC5CC266DB960A5E970DE5F2BBBE5CCB36C50F504B0304140006080800B670623B1B8617914E01000033030000300000006662
310
782F45374635344235342D363743322D343832342D383044432D4334454645303536354442422F636E782E786D6CD593C16EC32010447F0571AD6CE3D489D20813A9877E410FBD62D82434182CC055F3F75D1292E692438FBD206B7698593D61BEFD1E2DF982108D773D6D6B460938E5B571FB9ECE6957AD29D90A1EBC4F77
310
364A9C1CA1A759A682EF839FA72269D8C9D92654AD71C72206887E0E0A22CAF926B15E498B01E0AA19451807D01A34B919F16B070157417138917400F2F6FA41FCF0092A45DEE414C19BDC21783E4BD39D891265658C3D8DEA00A3ACE59CBC8678ACB54CB26EEB6BD7839D7E9348BE70AD9C8321B9BCA7F9A4A26C542347DE
310
E050F09802D22BA6749A800A394DD62899107273365E3C82CFC6A55557BC06C10774B7ABE7AEC3B0F34CF06446280E154026D0542C187BA9DAB6628BF7B6DBB0E5A65B3EB1F58631DE64BBE083F7B65CC218087E22CABB042E51D1F2268F1FE12B3EA24D40D63E9CFE00120194D60B9D5BC67FE6D39CDF37E20AF817881F50
310
4B0304140006080800B670623B29652116630500003C100000340000006662782F45374635344235342D363743322D343832342D383044432D4334454645303536354442422F6F626A656374732E786D6CAD575D739B3814FD2B0CFB0C989834C90EA1639B24E3E9A6EDD4D3CE3E64C623834CD8006224913AFDF57B040203
310
B65BEF871F0C12D2FD3CF7E8CA7FBFCB33E3957291B2E2D674ED8969D02262715A24B76625B7D6B569BC0F7CCE98EC2D338D82E4F4D654D366E0279C55A59E8AE99654991CCDDECFFF3444440B6A1A514684B83545F44C7362934AB2988A173B2692D8C97667BB76B3702836E1A47C1E092D09A78584A5982F20C5688C7287
310
C389E904BEA3BE07BEFAD7ABA6A75739B53F43FD69212429A20365233153D70BEF2E2E6FAC4BCF9B5ADEBB0BD79ADFCF43CBBD9A4E16EF168B9BD9DD0D140BC921495BC2E9D60C1E101B9E46BED37CEA2CD6861F3329624541A3DA7F7858DBAC25C6B4A4458C3CA654405BCFEBC970E8AAD8F43E4FD558ABEC4F9FE7557F47
310
4F506B7BFBEC5BCA367FC105710E2AB8A00A554D7CB4A30DFE26FBA86D18CBF4B75418399194A72433B274C3097F33032C554B027F2046A1932B842B0FCCC0DDCBEBDB8AD2F835768F59B9ADB24C41D30C6A64AF817F2A456D59FA83F2E3DA60137255A585BCD60EC9B7929AC18DEFD49381AF1ED30BFDB109A4B1CD488294
310
C3CDE6EBC8D185AABD6568061FEE37BB95AAC7E3CA4BCE4ACAA5820FA0D526AE7DAA2869B5EE5999531BE0CC20E6FBA07C41E43FA27CF7A6206F3CDD793B4F6B919C1462CB788EDCD893FA674CDA17AB7B3B7C019F8D561FAEE966FED562DFE98C1D12C6A9FC015C2A35D7FF3D7FC398F591DA4B5FE0BFA2C0189FEA50AE22
310
92817A1ED3020951A03432862970F976B33383259812CC8E5D240BBA801CBCF8CE2BBEE3BF910DB6AAD5F79E05123AE2DB33981FB1ACCB02B69D00CB014FD68AB573A7627EF9BFD4CC2C5C7D58557C4B22FAA88925A4DBB44825CECE3D78FB060D1231F0E885BE7D673C86A3874958F593906B5502D1563157814FDAC3420D
310
F69A070A22EC4B98E23CFF171A1E5311D12C23056555ABA53B8614563B92D17D02AAB009E8F46284624E5F53D5490C560CCCC2591FF1B45421EB0EBD8EA7ED13BE7C5D7E0428CD60FEF60779EB13E6664FF711CB185F6FDED60D139A001FF60CD1FD6D086F1D51474901E26B2CB794A343BC8ED3EDB612E0DD2351FCB65CF4
310
33D511C9E14B5B40ADC6A6263DB0336A8F700DDF56271A024E70B0B3629DE21847591E55DED73D56206AB927E46FAABC5C939C55853C274C93D69FD6FA4E78BF8B11DF898C9ECD60553FAD39283BA6F18984AA23E8884F83F45C5F5F859797B31B2B9C84A1E5B9DE9D35BFF25C6B76152E422F9C5DCC3D847F5801ED09D5AF
310
41441327A25FF15487F9EB725FB666F048A4701E9A827292E6F97569A32DF61DEC01C0BB8DCBBCCC684E0B49147C1FD54BF685A0AB18C868E6973949E819523E3DAC463660E68C7D9F55A9D1EFA3BD7A76A16AE1A810F95CE59B82A4D968A376DC2E8B44BBDD86B27B368CDE0ED548C7137DA860591A83706223A12CA712B4
310
7306DBF39C0A20A6DF95C7FAF670C6EED7A61F946493D1D6926782963813403548A78AE470DEF80D2D9CEAA26E4D1C76F60BFE74219A06527D6B82DF641A51616F703CAAC6A7160E08A00BEB4810A0274592A1B36E3675E36E978A0DE80727A0D6DF2D39A75BD27E0D8837276589537B40ABB56D5A41F48F1C6FCD3188C4EB
310
A6929D2FFB89CE995A4D00AE813BDD032DC48B56BD437DFDDC2DD7AED70C2272D63DE9A72068A45A92F0A4BE17A8A06B9366E16707AD80B1FC649459952097E74BB23805982B55E0401150A165964402AA8BDF9F3E7386BB686EDCA780C0D382E5392BF460A6EFB2C6EA1937D3F809B440D5F5435C4C5CF7A9EEFAF54564BD
310
2182DA24162F98680B4E7930C21A0079709CEAEB99A372305ABE0C0D7D6078105A83F6A0296DAEE1068A47DD1C55A9F4C9B2FC69E3EFD44B81028E963DF81B504B0304140006080000B670623B000000000000000000000000350000006662782F45374635344235342D363743322D343832342D383044432D433445464530
310
3536354442422F76657274696365732E62696E504B0304140006080800B670623BF270F1330600000004000000360000006662782F45374635344235342D363743322D343832342D383044432D4334454645303536354442422F747269616E676C65732E62696E636660600000504B0304140006080000B670623B00000000
310
0000000000000000370000006662782F45374635344235342D363743322D343832342D383044432D4334454645303536354442422F617474726962757465732E62696E504B0304140006080800B670623B08DA0BD19000000041010000360000006662782F45374635344235342D363743322D343832342D383044432D4334
310
454645303536354442422F6469726563746F72792E786D6C858F410AC3201045AF22B36F53E9A60B35CBEEBAE80D244E44489C6234F4F835464A48035D0DF398FF9F8AF63D0E6CC63039F212F8F9020C7D47C6792B21C5FE7403D62A1188E2E60C98D7234A5830286103A55745067B9D86B8A3CF9C7F90C11DE607FB144396
310
D7B6A82D282E9A152AD114D5EF2CB866EEE831B8EEA07A7BB5A8D7D61A2BAAEB7FD5F70921FF497D00504B0304140006080800B670623B6378F24DFF000000A00100003B0000006662782F45374635344235342D363743322D343832342D383044432D4334454645303536354442422F7265736F75726365732F636F72652E
310
786D6C8D504B6E833010BD0A9A6D65B0094E42641C85B639412F6099496225D8C89FAAC7AF09546A77DDCC8CDE47F3F4C4F16B7C149FE88371B603565228D06A37187BED20C50BD9437194C23B177FC9A0B06AC40E6618A4B87A97A615D2CE46B431A3D60DB8822A048C50E8473E3A08FA86A32A558A5911EEE5A4F45D5DB1
310
6465A6B34E8A107D0E502C4FE609D26370C96B0CA25A58295232C3AA3143FE692E063D485EF7F5AEE71BD2D2F39634AFFC44DAF7DD9E9CCE6F9CD25DCBFA762BAAD92C4534E34F46ED51451C40D694B6843142EB0FD61C283F34FC85EE0F948A6A96FF31A569F8A729191B37F51A77B105902C0779125254735F793DCBCC7B
310
EE567E03504B010214000A0000080000B670623B3DEE336E79000000790000001B00000000000000000000000000000000006175746F6465736B2D64657369676E2D7061636B6167652E786D6C504B01021400140006080800B670623BD486FD9CA0000000F40000001300000000000000000000000000B20000005B436F6E
310
74656E745F54797065735D2E786D6C504B01021400140006080800B670623BBC1638F5EC0000007C010000080000000000000000000000000083010000636F72652E786D6C504B01021400140006080800B670623B55019EA25F0000007C000000070000000000000000000000000095020000636E782E786D6C504B010214
310
00140006080800B670623B3586FFB671010000D40300000C00000000000000000000000000190300006662782F636F72652E786D6C504B01021400140006080800B670623B4220A0FF7D0000009D0000000B00000000000000000000000000B40400006662782F636E782E786D6C504B01021400140006080800B670623B2F
310
A3FEDE290100001202000031000000000000000000000000005A0500006662782F45374635344235342D363743322D343832342D383044432D4334454645303536354442422F636F72652E786D6C504B01021400140006080800B670623B1B8617914E010000330300003000000000000000000000000000D2060000666278
310
2F45374635344235342D363743322D343832342D383044432D4334454645303536354442422F636E782E786D6C504B01021400140006080800B670623B29652116630500003C10000034000000000000000000000000006E0800006662782F45374635344235342D363743322D343832342D383044432D4334454645303536
310
354442422F6F626A656374732E786D6C504B01021400140006080000B670623B0000000000000000000000003500000000000000000000000000230E00006662782F45374635344235342D363743322D343832342D383044432D4334454645303536354442422F76657274696365732E62696E504B01021400140006080800
310
B670623BF270F13306000000040000003600000000000000000000000000760E00006662782F45374635344235342D363743322D343832342D383044432D4334454645303536354442422F747269616E676C65732E62696E504B01021400140006080000B670623B0000000000000000000000003700000000000000000000
310
000000D00E00006662782F45374635344235342D363743322D343832342D383044432D4334454645303536354442422F617474726962757465732E62696E504B01021400140006080800B670623B08DA0BD190000000410100003600000000000000000000000000250F00006662782F45374635344235342D363743322D34
310
3832342D383044432D4334454645303536354442422F6469726563746F72792E786D6C504B01021400140006080800B670623B6378F24DFF000000A00100003B00000000000000000000000000091000006662782F45374635344235342D363743322D343832342D383044432D4334454645303536354442422F7265736F75
310
726365732F636F72652E786D6C504B0506000000000E000E0080040000611100000000
  0
XRECORD
  5
112
102
{ACAD_REACTORS
330
110
102
}
330
110
100
AcDbXrecord
280
     1
270
     1
271
     1
  0
XRECORD
  5
111
102
{ACAD_REACTORS
330
110
102
}
330
110
100
AcDbXrecord
280
     1
270
     1
271
     1
  0
XRECORD
  5
18A
102
{ACAD_REACTORS
330
110
102
}
330
110
100
AcDbXrecord
280
     1
 70
     0
 90
1778669749
  1
9BF507EE-FAF7-4A99-A33D-4EE51894BC40
310
504B03040A0000080000B670623B3DEE336E79000000790000001B0000006175746F6465736B2D64657369676E2D7061636B6167652E786D6C3C3F786D6C2076657273696F6E3D22312E302220656E636F64696E673D227574662D3822203F3E3C666F726D6174733E3C666F726D61743E687474703A2F2F736368656D612E
310
6175746F6465736B2E636F6D2F64657369676E2D7061636B6167652F323030393C2F666F726D61743E3C2F666F726D6174733E504B0304140006080800B670623BD486FD9CA0000000F4000000130000005B436F6E74656E745F54797065735D2E786D6C7D8EC10E82300C865F65E91D8A1E8C310C0EEA1BF002731658846E
310
D98AC1B77784ABF1D8FE5FBFBF75BBCE937A534CCEB38643598122B6FEE978D0B0485F9C41B54DDD7D022595594E1A469170414C76A4D9A4D207E29CF43ECE46F218070CC6BECC4078ACAA135ACF422C856C0E68EA1BF5669944DDD7BCDE7B1F8E415D77AECB980613C2E4AC91FC167A2B244592486606FC29C8FD7F045B9A
310
EF7053A7E60B504B0304140006080800B670623BCA089DFFEC0000007C01000008000000636F72652E786D6C8D90416E83301045AF62CDB632D8402020E32882F604BD80653BC44AB011B6AB1EBF262152BBEB6A467FFE9B197D76FA9EEFE84BAFDE38DB03CD08206DA553C64E3DC470C1474027CE56E7C22F1B202B66DDC3
310
260367D3EAE2B24BD2D9A06D48AA754AEFA2F05E0740F29E9A1EBCBCEA59642286E4F0B76C11F226269DD15797E0188D42CF2346A57DE662F40ABCAEC77628C6120F654571D50C04B7F5B9C1E3997CD4F550BE3745C3F20DE62C98F9755FAE5A04AD801784B498524C8A4F5A75E4D055873772EC0861F966FF03C545FD138A
310
C686B2D8DF7D621E384D8F3C069CE55B16A93C824A75CB8DFF00504B0304140006080800B670623B55019EA25F0000007C00000007000000636E782E786D6C4DCB3B0E80201045D1AD90E915ED2CF8AC45050C11660C8261F98AB1B07AC9C97D42D718D865D3E909258CFD00CCE24AC6E326A164D74DC0B4128928FF326038
310
472BA13128B1252AC747C6BAB984FC68F0B87FE8960A5C09FE86CFB69FBA01504B0304140006080800B670623B68FC0B7272010000D40300000C0000006662782F636F72652E786D6CC5535B6E833010BC8AE5DF0A6C1E8124328E22D29EA01770C0A128602363A31CBFCB234A53A555FA553EC09AD9F5CE8C31DB5DDA060D
310
D2F4B556190E7C8A9154852E6B5565D8D993B7C668C799D1DA7E29C3488956667884316795D1AE5BA0422B2B950554E9522EA0E87B69312A1A5864B82F3E642B7CE12C54F467BF13C55954D20F7CA0A18EB3DE1A1080E621E31BF3D3F1C2C88C73E65C5D2E6C5DC2B4FA544B8379921C36797888BC3C8A032F4E73EA6D927D
310
EA1DF6F42D49F2E8350D5346C666CE6CDD5ED515460A2B4BCC434A375E1078347C0FE22D5D6DE3D50B5D6F2965642CBF6B725DF96493AB958DC245EEDCD6631E809089F8E61622B2A81703E8219C913144F84C09DF070D8140C8561C9BAB8F3340832CAC363130A576376A108D933095FA747AD0CF0B46E64E983A6D0EAE1F
310
CE089F9EF1FB8E70D44255604258581E9D1D75B259C3125A278D37D80B52DAB4A279CEC62F0EFF44DDC43F9454E8469BFF5244960322CBEF41C6FBC83F01504B0304140006080800B670623B0F71DDB67E0000009D0000000B0000006662782F636E782E786D6C4DCCD10A83201886E15B91FFDCA54DB73F502386BB8F5816
310
32D3703976F9ABD1C18E3E78F87855FB990379BBFCF2296AE02706C4C5471A7C9C349475A408A4352AA7B4FEDD80C47E761A7606A3A69CCA72D0E0C6BE8475D3E0E3F3409428EA6B27A84079A782899AA2EC1A7AE3ECCC2FD858CB2D544655BFD2B67BD87C01504B0304140006080800B670623BE134B4FB28010000120200
310
00310000006662782F38353834323741342D343835462D343034322D383541392D4331303331363839454531452F636F72652E786D6C8D515B6EC32010BC0AE22B55850D0EA424C24451959EA0172086A42831583CAA1CBF503B52FB971F16CDCECC0EACD8DFC71BF836215AEF7A481A0C817183D7D65D7A98D3197108F652
310
04EFD31F1A044E8DA6871586525C82CFD3020DDE25E352419DD76601558C264130DCCAA58771F832A36A544E8511AFCDA486ABBA988634A55D7852C4144A00300FA927949C71DABD1D28A29C7D208A6987383B6CD13BC16BB2E1DBE3911C453B0BA5C8D9EA456E758963CFD684674DAA588A64C747FC2118958C86B2C3788B
310
0841B8FB247487D98EB257CC77188BB6D2FF89F2A49F1465EBD2BA5BE2CEB2082511EDDC9042FB7CBA3DC298FBE4430275DE2A9AE1054ADC60CC08E3A29D89E5F9C5714317C7987C28DFBBBA9E0A97B0D97643A568EB864AF95D5FA9759BF207504B0304140006080800B670623B1B8617914E010000330300003000000066
310
62782F38353834323741342D343835462D343034322D383541392D4331303331363839454531452F636E782E786D6CD593C16EC32010447F0571AD6CE3D489D20813A9877E410FBD62D82434182CC055F3F75D1292E692438FBD206B7698593D61BEFD1E2DF982108D773D6D6B460938E5B571FB9ECE6957AD29D90A1EBC4F
310
77364A9C1CA1A759A682EF839FA72269D8C9D92654AD71C72206887E0E0A22CAF926B15E498B01E0AA19451807D01A34B919F16B070157417138917400F2F6FA41FCF0092A45DEE414C19BDC21783E4BD39D891265658C3D8DEA00A3ACE59CBC8678ACB54CB26EEB6BD7839D7E9348BE70AD9C8321B9BCA7F9A4A26C542347
310
DEE050F09802D22BA6749A800A394DD62899107273365E3C82CFC6A55557BC06C10774B7ABE7AEC3B0F34CF06446280E154026D0542C187BA9DAB6628BF7B6DBB0E5A65B3EB1F58631DE64BBE083F7B65CC218087E22CABB042E51D1F2268F1FE12B3EA24D40D63E9CFE00120194D60B9D5BC67FE6D39CDF37E20AF817881F
310
504B0304140006080800B670623B5933D422630500003B100000340000006662782F38353834323741342D343835462D343034322D383541392D4331303331363839454531452F6F626A656374732E786D6CAD575B6FA33814FE2B887D0642934E9B156594264D158D3A534DD4D13E548A0C38942D60649B4EBABF7E3F8321
310
40924EF6928780CDF1B97EE762EFF32E4B8D37CA45C2F21BD3B547A641F39045491EDF98A5DC5AD7A6F1D9F73863B243661A39C9E88DA9B64DDF8B392B0BBD15D12D295339D85DDEFE618890E6D434C2940871638AF08566C426A5641115AF764424B1E3EDCE76ED9AB0CF36E6A47819302D08A7B984A6D8CFC1C5A89572FB
310
CB91E9F89EA3BEFB9EFAD754E3D3544E654F5F7E920B49F2F040D880CDD89D2CEE2E2EA7D6E56432B6269F2E5CEB7679BBB0DCABF168FE693E9FCEEEA6102C240727AD09A75BD3BF876F78127A4EFDA9D5582B7E4CA590E5390D2BFB6161A5B3E618D182E611E2985001691DAB47FDA5AB7CD3F93C566B2DB2BB7D9E55DD13
310
1D468DEECDB3AB290BFE8409E21C54704115AA6AFF68436BFC8DF65E0B184BF5B74418199194272435D224E084BF9B3E481589EFF5D828747285706581E9BB7B7E5D5D911ABFC6EE312DB7659A2A689A7E85EC0DF04FA5A8344BFEA2FCB834E8845895492EAFB541F2BDA0A63FF59C6AD3F7D4637CA13FD68E34B629891172
310
98597F1D183A57B9B75A98FE9765B05BAB7C3C2EBCE0ACA05C2AF8005A4DE09AA7F29216EB9E15397500C6F47CBE77CA7778FE2BD277AF0AE2C693DD6437D1522427B9D8329E2136F6A8FA19A3E6C56ADF0E5F50CF06D48734EDCEBF22F69C56D97EC138153F804B85E6FABFC7AFEFB32E523BE1F3BD372418E363EDCA7548
310
52949E8724474014288D94610BB57C1BEC4C7F854A89CA8E5324F55B871CBC78CE1BBEE3BFE68D6A5589EF3C730474506FCFA8FCF0659516D0ED04580EEA6425581B77CAE797FF4BCECC16EB2FEB926F49481F746159D06D922712BD730FDEAE42BD40F42C7AA5EF3F198F60E86110D6DD20645A9480B795CF95E3E3A659A8
310
C55E724F408873315335CFFB8584874484344D494E59D94869DB90C26A5B64F49C802CAC1D3ABE18A098D3B7444D123D8A9E5AE8F5214F0AE5B2B6E9B575DA3E61CBD3EA2B4009FA940524DD1305FB6A1FB294F14DF0BEA90BA109ECE1481FDC3FFAE8D60E75141700BE82725371B4873751B2DD960265F788137FACE6DD40
310
B575E4F0A5C99F46629D92131467A41EE11ABD8D4CCC039CA0AFB37C93A08B232B8F0AEFCA1E0A1015DF13FC83322B362463652ECF71D3A8B1A7D1BE65DE1D62C44F22C317D35F574FEB16153BA2D13E543D10A80E74C4A65E78A6B7CBCBD1D5DD9DB59C2DAFACC96C3AB566E3F1C29ADCDD5DBAD7D3C9ED7C822ED74F80A6
310
41755310DE4443F44A9E68373FADF6596BFA0F440AE7BECE2727AE9F4F2B1B53B1E7E00CF0DD1E5C65454A339A4BA2D0FBA05ED2EF0443458F47BDBFCA484CCFE0F2ED7E3DD0013B679C7B5499467F0ECEEADDB9CA85A34CE44B99053949D2C1416DB85DE4B136BB7165FBAC0B7AB3542BED4F8CA182A549847A1319316519
310
95A83A67147B9E5101C47487F2485F1ECE38FD568F839204296D3479219888530154036E6528FBFBC66F98E0D4107563A2D7D9AFF8D389681A08F58D89F22693900A3B407754734FC51C10C010D6D640809EE4718AC1BA3ED4AEDB53CA37283F68805A7E4B72CEB0A4EDEAD5DD8C14059A76AFAA56BA6901E13F32BC51C720
310
12AF41295B5BF61BAD3195181FB506E6B40F4C10AF5AF40EF9F5B159AE5DD1F43C72D635E94310D45C2D49785C5D0B94D3B54AB3C5A38349C0587D338AB48C11CBF339599C02CCA54A70A008A8D03C0B2201D5F9EFCF8F9CE12A9A19CB0410789EB32C63B95ECCF455D658BFE0621A3DA32C5075FB101723D77DAE867E7D0F
310
D90444509B44E2151B4DC2290B065803200FBAA9BE9D392A0603F2D5C2D00D6302A615680F66D2FA166E2079D4C551A54AB758161FCEFD4E450A14704CECFEDF504B0304140006080000B670623B000000000000000000000000350000006662782F38353834323741342D343835462D343034322D383541392D4331303331
310
363839454531452F76657274696365732E62696E504B0304140006080800B670623BF270F1330600000004000000360000006662782F38353834323741342D343835462D343034322D383541392D4331303331363839454531452F747269616E676C65732E62696E636660600000504B0304140006080000B670623B000000
310
000000000000000000370000006662782F38353834323741342D343835462D343034322D383541392D4331303331363839454531452F617474726962757465732E62696E504B0304140006080800B670623B08DA0BD19000000041010000360000006662782F38353834323741342D343835462D343034322D383541392D43
310
31303331363839454531452F6469726563746F72792E786D6C858F410AC3201045AF22B36F53E9A60B35CBEEBAE80D244E44489C6234F4F835464A48035D0DF398FF9F8AF63D0E6CC63039F212F8F9020C7D47C6792B21C5FE7403D62A1188E2E60C98D7234A5830286103A55745067B9D86B8A3CF9C7F90C11DE607FB1443
310
96D7B6A82D282E9A152AD114D5EF2CB866EEE831B8EEA07A7BB5A8D7D61A2BAAEB7FD5F70921FF497D00504B0304140006080800B670623BD9A3B367FE000000A00100003B0000006662782F38353834323741342D343835462D343034322D383541392D4331303331363839454531452F7265736F75726365732F636F7265
310
2E786D6C8D504B6E833010BD0A9A6D65B01D0201194711694FD00B586642AD043BF2A7EAF16B122AB5BB6E6646EFA3797AE2F8B5DC8A4FF4C1383B002B291468B59B8C9D0748F1420E501CA5F0CEC55F3228AC5A708015062966EFD27D83B4B3116DCCA875136EA00A012314FA968F0182FEC045952AC5AC08D7F2AEF455CD
310
58B232D3592745883E07289E4FD609D26370C96B0CA27AB252A464A64D63A6FCD35C0C7A904D73EE467EE664DCD58CD4ED4849D79C5A723ED1B7A61977AF2D6F45B59AA58866F9C9A83DAA8813484E6947182394BFB3BAA7FBBEDEBFD0434FA9A856F91F53BA4FFF342563E38E6F719FB60092E5200F428A6AED2BAF479979
310
AFDDCA6F504B010214000A0000080000B670623B3DEE336E79000000790000001B00000000000000000000000000000000006175746F6465736B2D64657369676E2D7061636B6167652E786D6C504B01021400140006080800B670623BD486FD9CA0000000F40000001300000000000000000000000000B20000005B436F6E
310
74656E745F54797065735D2E786D6C504B01021400140006080800B670623BCA089DFFEC0000007C010000080000000000000000000000000083010000636F72652E786D6C504B01021400140006080800B670623B55019EA25F0000007C000000070000000000000000000000000095020000636E782E786D6C504B010214
310
00140006080800B670623B68FC0B7272010000D40300000C00000000000000000000000000190300006662782F636F72652E786D6C504B01021400140006080800B670623B0F71DDB67E0000009D0000000B00000000000000000000000000B50400006662782F636E782E786D6C504B01021400140006080800B670623BE1
310
34B4FB280100001202000031000000000000000000000000005C0500006662782F38353834323741342D343835462D343034322D383541392D4331303331363839454531452F636F72652E786D6C504B01021400140006080800B670623B1B8617914E010000330300003000000000000000000000000000D3060000666278
310
2F38353834323741342D343835462D343034322D383541392D4331303331363839454531452F636E782E786D6C504B01021400140006080800B670623B5933D422630500003B10000034000000000000000000000000006F0800006662782F38353834323741342D343835462D343034322D383541392D4331303331363839
310
454531452F6F626A656374732E786D6C504B01021400140006080000B670623B0000000000000000000000003500000000000000000000000000240E00006662782F38353834323741342D343835462D343034322D383541392D4331303331363839454531452F76657274696365732E62696E504B01021400140006080800
310
B670623BF270F13306000000040000003600000000000000000000000000770E00006662782F38353834323741342D343835462D343034322D383541392D4331303331363839454531452F747269616E676C65732E62696E504B01021400140006080000B670623B0000000000000000000000003700000000000000000000
310
000000D10E00006662782F38353834323741342D343835462D343034322D383541392D4331303331363839454531452F617474726962757465732E62696E504B01021400140006080800B670623B08DA0BD190000000410100003600000000000000000000000000260F00006662782F38353834323741342D343835462D34
310
3034322D383541392D4331303331363839454531452F6469726563746F72792E786D6C504B01021400140006080800B670623BD9A3B367FE000000A00100003B000000000000000000000000000A1000006662782F38353834323741342D343835462D343034322D383541392D4331303331363839454531452F7265736F75
310
726365732F636F72652E786D6C504B0506000000000E000E0080040000611100000000
  0
XRECORD
  5
113
102
{ACAD_REACTORS
330
110
102
}
330
110
100
AcDbXrecord
280
     1
270
     1
271
     1
  0
XRECORD
  5
114
102
{ACAD_REACTORS
330
110
102
}
330
110
100
AcDbXrecord
280
     1
270
     1
271
     1
  0
DICTIONARY
  5
275
102
{ACAD_REACTORS
330
274
102
}
330
274
100
AcDbDictionary
280
     1
281
     1
  3
TEXT
360
276
  0
CELLSTYLEMAP
  5
207B
102
{ACAD_REACTORS
330
104
102
}
330
104
100
AcDbCellStyleMap
 90
        3
300
CELLSTYLE
  1
TABLEFORMAT_BEGIN
 90
        5
170
     1
 91
        0
 92
    32768
 62
   257
 93
        1
300
CONTENTFORMAT
  1
CONTENTFORMAT_BEGIN
 90
        0
 91
        0
 92
      512
 93
        0
300

 40
0.0
140
1.0
 94
        5
 62
     0
340
11
144
0.25
309
CONTENTFORMAT_END
171
     1
301
MARGIN
  1
CELLMARGIN_BEGIN
 40
0.06
 40
0.06
 40
0.06
 40
0.06
 40
0.18
 40
0.18
309
CELLMARGIN_END
 94
        6
 95
        1
302
GRIDFORMAT
  1
GRIDFORMAT_BEGIN
 90
        0
 91
        1
 62
     0
 92
       -2
340
0
 93
        0
 40
0.045
309
GRIDFORMAT_END
 95
        2
302
GRIDFORMAT
  1
GRIDFORMAT_BEGIN
 90
        0
 91
        1
 62
     0
 92
       -2
340
0
 93
        0
 40
0.045
309
GRIDFORMAT_END
 95
        4
302
GRIDFORMAT
  1
GRIDFORMAT_BEGIN
 90
        0
 91
        1
 62
     0
 92
       -2
340
0
 93
        0
 40
0.045
309
GRIDFORMAT_END
 95
        8
302
GRIDFORMAT
  1
GRIDFORMAT_BEGIN
 90
        0
 91
        1
 62
     0
 92
       -2
340
0
 93
        0
 40
0.045
309
GRIDFORMAT_END
 95
       16
302
GRIDFORMAT
  1
GRIDFORMAT_BEGIN
 90
        0
 91
        1
 62
     0
 92
       -2
340
0
 93
        0
 40
0.045
309
GRIDFORMAT_END
 95
       32
302
GRIDFORMAT
  1
GRIDFORMAT_BEGIN
 90
        0
 91
        1
 62
     0
 92
       -2
340
0
 93
        0
 40
0.045
309
GRIDFORMAT_END
309
TABLEFORMAT_END
  1
CELLSTYLE_BEGIN
 90
        1
 91
        1
300
_TITLE
309
CELLSTYLE_END
300
CELLSTYLE
  1
TABLEFORMAT_BEGIN
 90
        5
170
     1
 91
        0
 92
        0
 62
   257
 93
        1
300
CONTENTFORMAT
  1
CONTENTFORMAT_BEGIN
 90
        0
 91
        0
 92
      512
 93
        0
300

 40
0.0
140
1.0
 94
        5
 62
     0
340
11
144
0.18
309
CONTENTFORMAT_END
171
     1
301
MARGIN
  1
CELLMARGIN_BEGIN
 40
0.06
 40
0.06
 40
0.06
 40
0.06
 40
0.18
 40
0.18
309
CELLMARGIN_END
 94
        6
 95
        1
302
GRIDFORMAT
  1
GRIDFORMAT_BEGIN
 90
        0
 91
        1
 62
     0
 92
       -2
340
0
 93
        0
 40
0.045
309
GRIDFORMAT_END
 95
        2
302
GRIDFORMAT
  1
GRIDFORMAT_BEGIN
 90
        0
 91
        1
 62
     0
 92
       -2
340
0
 93
        0
 40
0.045
309
GRIDFORMAT_END
 95
        4
302
GRIDFORMAT
  1
GRIDFORMAT_BEGIN
 90
        0
 91
        1
 62
     0
 92
       -2
340
0
 93
        0
 40
0.045
309
GRIDFORMAT_END
 95
        8
302
GRIDFORMAT
  1
GRIDFORMAT_BEGIN
 90
        0
 91
        1
 62
     0
 92
       -2
340
0
 93
        0
 40
0.045
309
GRIDFORMAT_END
 95
       16
302
GRIDFORMAT
  1
GRIDFORMAT_BEGIN
 90
        0
 91
        1
 62
     0
 92
       -2
340
0
 93
        0
 40
0.045
309
GRIDFORMAT_END
 95
       32
302
GRIDFORMAT
  1
GRIDFORMAT_BEGIN
 90
        0
 91
        1
 62
     0
 92
       -2
340
0
 93
        0
 40
0.045
309
GRIDFORMAT_END
309
TABLEFORMAT_END
  1
CELLSTYLE_BEGIN
 90
        2
 91
        1
300
_HEADER
309
CELLSTYLE_END
300
CELLSTYLE
  1
TABLEFORMAT_BEGIN
 90
        5
170
     1
 91
        0
 92
        0
 62
   257
 93
        1
300
CONTENTFORMAT
  1
CONTENTFORMAT_BEGIN
 90
        0
 91
        0
 92
      512
 93
        0
300

 40
0.0
140
1.0
 94
        2
 62
     0
340
11
144
0.18
309
CONTENTFORMAT_END
171
     1
301
MARGIN
  1
CELLMARGIN_BEGIN
 40
0.06
 40
0.06
 40
0.06
 40
0.06
 40
0.18
 40
0.18
309
CELLMARGIN_END
 94
        6
 95
        1
302
GRIDFORMAT
  1
GRIDFORMAT_BEGIN
 90
        0
 91
        1
 62
     0
 92
       -2
340
0
 93
        0
 40
0.045
309
GRIDFORMAT_END
 95
        2
302
GRIDFORMAT
  1
GRIDFORMAT_BEGIN
 90
        0
 91
        1
 62
     0
 92
       -2
340
0
 93
        0
 40
0.045
309
GRIDFORMAT_END
 95
        4
302
GRIDFORMAT
  1
GRIDFORMAT_BEGIN
 90
        0
 91
        1
 62
     0
 92
       -2
340
0
 93
        0
 40
0.045
309
GRIDFORMAT_END
 95
        8
302
GRIDFORMAT
  1
GRIDFORMAT_BEGIN
 90
        0
 91
        1
 62
     0
 92
       -2
340
0
 93
        0
 40
0.045
309
GRIDFORMAT_END
 95
       16
302
GRIDFORMAT
  1
GRIDFORMAT_BEGIN
 90
        0
 91
        1
 62
     0
 92
       -2
340
0
 93
        0
 40
0.045
309
GRIDFORMAT_END
 95
       32
302
GRIDFORMAT
  1
GRIDFORMAT_BEGIN
 90
        0
 91
        1
 62
     0
 92
       -2
340
0
 93
        0
 40
0.045
309
GRIDFORMAT_END
309
TABLEFORMAT_END
  1
CELLSTYLE_BEGIN
 90
        3
 91
        2
300
_DATA
309
CELLSTYLE_END
  0
ACAD_PROXY_OBJECT
  5
23E
330
23D
100
AcDbProxyObject
 90
      499
 91
      543
 71
    33
 97
      157
 70
     0
162
                 0
161
               493
310
73CB81E85EB51B8BE3F2E07A17AD46E2F8FE00800030C02000000300012AF841D01405014050140501083C80A0481A0882A0D55554000000000000785FA4
 94
        0
  0
ACAD_PROXY_OBJECT
  5
23F
330
23D
100
AcDbProxyObject
 90
      499
 91
      544
 71
    33
 97
      157
 70
     0
162
                 0
161
               638
310
73CB81E85EB51B8BE3F2E07A17AD46E2F8FE00800030C02000000300012AFA1C80A0280A0280A0280A0280A0280A0280A0284A0280A0280A0280A0280A02400000000000000080000000000000785FA4
340
26A
 94
        0
  0
ACAD_PROXY_OBJECT
  5
240
330
23D
100
AcDbProxyObject
 90
      499
 91
      545
 71
    33
 97
      157
 70
     0
162
                 0
161
               716
310
73CB81E85EB51B8BE3F2E07A17AD46E2F8FE00800030C02000000300012AF98333333333333D33F24080A0280A0280A0280A0280A0280A0280A0280A0280A0280A0280A0280A0280A0280A0280A0280A0243BDF4F8D976EA23FC
340
0
 94
        0
  0
ACAD_PROXY_OBJECT
  5
241
330
23D
100
AcDbProxyObject
 90
      499
 91
      546
 71
    33
 97
      157
 70
     0
162
                 0
161
               315
310
73CB81E85EB51B8BE3F2E07A17AD46E2F8FE00800030C02000000300012AFC0000000000003C2FCC
340
0
 94
        0
  0
ACAD_PROXY_OBJECT
  5
242
330
23D
100
AcDbProxyObject
 90
      499
 91
      547
 71
    33
 97
      157
 70
     0
162
                 0
161
               493
310
73CB81E85EB51B8BE3F2E07A17AD46E2F8FE00800030C02000000300012AFC521D4454FB21E93F26A6666666666E4FE89A9999999999B93F8020000C3004
340
26B
340
26C
 94
        0
  0
ACAD_PROXY_OBJECT
  5
243
330
23D
100
AcDbProxyObject
 90
      499
 91
      548
 71
    33
 97
      157
 70
     0
162
             25878
311
4112401500114013401044900540045004D004CD1C01140138015001480104010C013C00B001140138015400B000C000B0012401500114013400B0011C011401380150014801040150016000B0009401CC00B000A0011C011401380134014C011C0080019C019401B8019001DC019C008000C800C800C800A4029035100540
311
0590040D44015001640132470045004E0054005200410043004F002C0045004E0055002C0030002C005100540059002C00470045004E00540052004100540058002C00250073002C002800470045004E004D00530047002000670065006E0064007700670020003200320033002900A4113801040134011401044E0041004D
311
0045004CD1C01140138015001480104010C013C00B001140138015400B000C000B0013801040134011400B0011C011401380150014801040150016000B0009401CC00B000A0011C011401380134014C011C0080019C019401B8019001DC019C008000C800C800D800A4012C3D004900460028004900530042004C0041004E0
311
04B00280050004100520054003A004E0041004D00450029002C0042004C004F0043004B003A004E0041004D0045002C0050004100520054003A004E0041004D00450029009054400450053004300520042D100114014C010C01480124014001500124013C0138013A470045004E0054005200410043004F002C0045004E005
311
5002C0030002C004400450053004300520049005000540049004F004E002C00470045004E00540052004100540058002C00250073002C002800470045004E004D00530047002000670065006E0064007700670020003200310037002900A4214C015001040138011001040148011001085300540041004E004400410052004
311
4004DD1C01140138015001480104010C013C00B001140138015400B000C000B0014C015001040138011001040148011000B0011C011401380150014801040150016000B0009401CC00B000A0011C011401380134014C011C0080019C019401B8019001DC019C008000C800C400E000A4029084D00410054004500520049004
311
1004C004213401040150011401480124010401300137470045004E0054005200410043004F002C0045004E0055002C0030002C004D004100540045005200490041004C002C00470045004E00540052004100540058002C00250073002C002800470045004E004D00530047002000670065006E006400770067002000320032
311
0031002900A41138013C0150011401044E004F00540045004CD1C01140138015001480104010C013C00B001140138015400B000C000B00138013C0150011400B0011C011401380150014801040150016000B0009401CC00B000A0011C011401380134014C011C0080019C019401B8019001DC019C008000C800C800D400A40
311
2906560045004E0044004F00520041958011401380110013C01480135470045004E0054005200410043004F002C0045004E0055002C0030002C00560045004E0044004F0052002C00470045004E00540052004100540058002C00250073002C002800470045004E004D00530047002000670065006E0064007700670020003
311
200320034002900A419100114014C010C014800C8010D4400450053004300520049005000540049004F004E00200032004ED1C01140138015001480104010C013C00B001140138015400B000C000B001100114014C010C01480124014001500124013C0138008000C800B0011C011401380150014801040150016000B00094
311
01CC00B000A0011C011401380134014C011C0080019C019401B8019001DC019C008000CC00D800A4029095300540041004E00440041005200440032004294C0150010401380110010401480110008000C80139470045004E0054005200410043004F002C0045004E0055002C0030002C005300540041004E00440041005200
311
4400200032002C00470045004E00540052004100540058002C00250073002C002800470045004E004D00530047002000670065006E0064007700670020003200320030002900A42534010401500114014801240104013000C8010A4D004100540045005200490041004C00200032004E11C01140138015001480104010C013
311
C00B001140138015400B000C000B001340104015001140148012401040130008000C800B0011C011401380150014801040150016000B0009401CC00B000A0011C011401380134014C011C0080019C019401B8019001DC019C008000D000C000A4029044D00410053005300411340104014C014C0132470045004E005400520
311
0410043004F002C0045004E0055002C0030002C004D004100530053002C00470045004E00540052004100540058002C00250073002C002800470045004E004D00530047002000670065006E006400770067002000340032002900A42950013C015001040130017C01340104014C014C010A54004F00540041004C0020004D0
311
04100530053004E51C01140138015001480104010C013C00B001140138015400B000C000B00150013C015001040130008001340104014C014C00B0011C011401380150014801040150016000B0009401CC00B000A0011C011401380134014C011C0080019C019401B8019001DC019C008000C800C800E000A401213D004900
311
460028004900530042004C0041004E004B0028004D0041005300530029002C0042004C0041004E004B002C005100540059002A004D004100530053002900905500052004900430045004154001480124010C01140133470045004E0054005200410043004F002C0045004E0055002C0030002C00500052004900430045002C
311
00470045004E00540052004100540058002C00250073002C002800470045004E004D00530047002000670065006E006400770067002000340033002900A40D1001240134010B4D004500410053005500520045004D0045004E0054004E51C01140138015001480104010C013C00B001140138015400B000C000B0013401140
311
104014C015401480114013401140138015000B0011C011401380150014801040150016000B0009401CC00B000A0011C011401380134014C011C0080019C019401B8019001DC019C008000D000D000A40290942004F004D005F0055004E0049005400530041554013801240150014C0134470045004E0054005200410043004
311
F002C0045004E0055002C0030002C0055004E004900540053002C00470045004E00540052004100540058002C00250073002C002800470045004E004D00530047002000670065006E0064007700670020003200340033002900A41CF400F0012401500114013400F801073D003C004900540045004D003E0041CF400F00124
311
01500114013400F801073D003C004900540045004D003E0041CF400F0012401500114013400F801063D003C005100540059003E0041CF400F0012401500114013400F801073D003C004900540045004D003E00910420069006C006C0020006F00660020004D006100740065007200690061006C00415040148012401040130
311
010541005200490041004C0041504014801240104013002901310090B65006100090065006100090045006100630068000A00455CC01C401B4002401CC01C401B40024014C01C401D4018401C8019400800134019401D0019401C80028011C7300710063006D0009007300710063006D000900530071007500610072006500
311
2000430065006E00740069006D0065007400650072000A00459CC01C4019801D0002401CC01C4019801D00024014C01C401D4018401C801940080011801BC01BC01D0002801147300710069006E0009007300710069006E000900530071007500610072006500200049006E000A0043D9C018401B00024019C018401B00024
311
011C018401B001B001BC01B80028010C710074000900710074000900510075006100720074000A0046DB001C40190017C01BC01E8002401B001C40190017C01BC01E80024013001A401C401D401A401900080013C01D401B8018C01940028010A6C0009006C0009004C0069007400650072000A00445B401B0002401B401B0
311
0024013401A401B001B001A401B001A401D0019401C80028010B79006400090079006400090059006100720064000A0042D9801D00024019801D00024011801BC01BC01D00028010B69006E00090069006E00090049006E00630068000A00429B4002401B400240134019401D0019401C80028011163006D00090063006D00
311
0900430065006E00740069006D0065007400650072000A00445B401B4002401B401B40024013401A401B001B001A401B4019401D0019401C80028010C6C00620009006C006200090050006F0075006E0064000A00431BC01E8002401BC01E80024013C01D401B8018C01940028010967000900670009004700720061006D00
311
0A00441B4019C002401B4019C0024013401A401B001B001A4019C01C8018401B40028010A62007800090062007800090042006F0078000A00404B400
161
              6696
310
73CB81E85EB51B8BE3F2E07A17AD46E2F8FE00800030C02000000300012AFA2080A0280A0280A0280D202269349E4B2196C9FA0320240501405014090140501405019011349A4F2590CB64FD0190120280A0280A3880C80C815174B85D2F97CA048080C80901405014051D40640640E883C16030180C064040440480A0280A
310
028EA0320320947077FBFDFEBF7F9FA02202405014050147501901905A0A0B6C1C7480BECFD0190120280A0280A3A80C80C835174B85D2F97CBE47E80C80901405014051D40640641E8BA5C2E97CBE5F23F40640480A0280A028EA03203211441E0B0180C060320202202405014050147501901909A383BFDFEFF5FBFCFD01
310
10120280A0280A3A80C80C8550505B60E3A405F67E80880901405014051D405024050242D03408BA5C2E97CBE5F23F40440480A0280A028EA02812028121881A040542A150A8147A1FA02202405014050147501409014090D409022E970BA5F2F97C8FD0110120280A0280A3A80A0480A048720681174B85D2F97CBE47E80C
310
80901405014051E40640643E8BA5C2E97CBE5F23F40640480A0288254811703D0BD6A3719C7F03C000186000080C566AB55AAD56FB1F959AAD56AB55BEC7E80A03159AAD56AB55BEC7E566AB55AAD56FB1FA0280C4863F1F8BC1E771F9218FC7E2F079DC7E80A031218FC7E2F079DC7E4863F1F8BC1E771FA0281480959AAD
310
56AB55BEC7E566AB55AAD56FB1FA0280A03159AAD56AB55BEC7E566AB55AAD56FB1FA0280C269349E4B219749F89A4D2792C865D27E80A0200566AB55AAD56FB1F959AAD56AB55BEC7F48400000000000010408000000C000B4FFFF4110340D024090140510429084410190A4064229014290A4290A40A000000000000785F
310
8000000000001E17E80C0100006180403800061801B39DEEA7C74B567E6CE77BA9F1D2D59F9B39DEEA7C74B567E5578E926B108541F877BE9F1B2EDD247E5578E926B108541F9B39DEEA7C74B567E5578E926B108541F877BE9F1B2EDD247E5578E926B108541F9703D0BD6A3717C7F40501409069014090541D064069703D
310
0BD6A3717C7F0040001860100400018601002000186005228817F3FFFCFFFF3FFFC80A0280A2A80A0280A0280A0280A0280A0280A0280A0280A0280A0280A0280C80D0640905419074390F00
340
15
340
0
340
11
340
11
340
16
340
16
340
16
 94
        0
  0
ACAD_PROXY_OBJECT
  5
244
330
23D
100
AcDbProxyObject
 90
      499
 91
      549
 71
    33
 97
      157
 70
     0
162
                 0
161
               279
310
73CB81E85EB51B8CE3F2E07A17AD46E338FE07800030C0200C00030C0123C9FE3E0000
340
26D
 94
        0
  0
ACAD_PROXY_OBJECT
  5
268
330
23D
100
AcDbProxyObject
 90
      499
 91
      562
 71
    33
 97
      157
 70
     0
162
                 0
161
               247
310
73CB81E85EB51B8CE3F2E07A17AD46E338FE00000030002000000300012A04
340
1AC
 94
        0
  0
ACAD_PROXY_OBJECT
  5
245
330
23D
100
AcDbProxyObject
 90
      499
 91
      550
 71
    33
 97
      157
 70
     0
162
                 0
161
               279
310
73CB81E85EB51B8CE3F2E07A17AD46E338FE07800030C0201C00030C012AE9FE0E0000
340
273
 94
        0
  0
ACAD_PROXY_OBJECT
  5
267
330
23D
100
AcDbProxyObject
 90
      499
 91
      561
 71
    33
 97
      157
 70
     0
162
                 0
161
               247
310
73CB81E85EB51B8CE3F2E07A17AD46E338FE00000030002000000300012A04
340
1AA
 94
        0
  0
ACAD_PROXY_OBJECT
  5
246
330
23D
100
AcDbProxyObject
 90
      499
 91
      551
 71
    33
 97
      157
 70
     0
162
                 0
161
               516
310
73CB81E85EB51B8BE3F2E07A17AD46E2F8FE00800030C02000000300012AF8570E2DB39DEF867E14AE47E17A945E1F852B91F85EA51787F4333333333333F33FAC
 94
        0
  0
ACAD_PROXY_OBJECT
  5
247
330
23D
100
AcDbProxyObject
 90
      499
 91
      552
 71
    33
 97
      157
 70
     0
162
                 0
161
               249
310
73CB81E85EB51B8BE3F2E07A17AD46E2F8FE00800030C02000000300012AFCCC
340
0
 94
        0
  0
ACAD_PROXY_OBJECT
  5
248
330
23D
100
AcDbProxyObject
 90
      499
 91
      553
 71
    33
 97
      157
 70
     0
162
             17300
311
42950019401B401C001B0018401D00194008000C40005013D003C0069006600280065007100750061006C00280048006F006C0065003A007400610070007000650064002C0022003000220029002C00220025002500630022002C0048006F006C0065003A006E006F006D0069006E0061006C0020002200200022002000690
311
06600280065007100750061006C00280048006F006C0065003A0075006E006900740073002C0022003100220029002C002200780022002C0022002D0022002900200022002000220029003E003C0069006600280065007100750061006C00280048006F006C0065003A007400610070007000650064002C002200300022002
311
9002C0048006F006C0065003A006400690061002C0048006F006C0065003A0070006900740063006800640065007300630029003E0020007B005C00460041004D004700440054003B0078007D0020003C0069006600280065007100750061006C00280048006F006C0065003A007400650072006D0069006E0061007400690
311
06F006E002C0022003000220029002C0048006F006C0065003A00640065007000740068002C0022005400480052005500220029003E005C0050007B005C00460041004D004700440054003B0076007D002500250063003C0048006F006C0065003A00630074006400690061003E0020007B005C00460041004D00470044005
311
4003B0078007D0020003C0048006F006C0065003A0063007400640065007000740068003E0042950019401B401C001B0018401D00194008000C401FE3D003C0069006600280065007100750061006C00280048006F006C0065003A007400610070007000650064002C0022003000220029002C00220025002500630022002C
311
0048006F006C0065003A006E006F006D0069006E0061006C002000220020002200200069006600280065007100750061006C00280048006F006C0065003A0075006E006900740073002C0022003100220029002C002200780022002C0022002D0022002900200022002000220029003E003C00690066002800650071007500
311
61006C00280048006F006C0065003A007400610070007000650064002C0022003000220029002C0048006F006C0065003A006400690061002C0048006F006C0065003A0070006900740063006800640065007300630029003E0020007B005C00460041004D004700440054003B0078007D0020003C00690066002800650071
311
00750061006C00280048006F006C0065003A007400650072006D0069006E006100740069006F006E002C0022003000220029002C0048006F006C0065003A00640065007000740068002C0022005400480052005500220029003E005C0050007B005C00460041004D004700440054003B0077007D002500250063003C004800
311
6F006C0065003A00630074006400690061003E002000580020003C0048006F006C0065003A006300740061006E0067006C0065003E0025002500640042950019401B401C001B0018401D00194008000C401CF3D003C0069006600280065007100750061006C00280048006F006C0065003A007400610070007000650064002
311
C0022003000220029002C00220025002500630022002C0048006F006C0065003A006E006F006D0069006E0061006C002000220020002200200069006600280065007100750061006C00280048006F006C0065003A0075006E006900740073002C0022003100220029002C002200780022002C0022002D00220029002000220
311
02000220029003E003C0069006600280065007100750061006C00280048006F006C0065003A007400610070007000650064002C0022003000220029002C0048006F006C0065003A006400690061002C0048006F006C0065003A0070006900740063006800640065007300630029003E005C0050007B005C00460041004D004
311
700440054003B0078007D0020003C0069006600280065007100750061006C00280048006F006C0065003A007400650072006D0069006E006100740069006F006E002C0022003000220029002C0048006F006C0065003A00640065007000740068002C0022005400480052005500220029003E0042950019401B401C001B001
311
8401D00194008000C401EA3D003C0069006600280065007100750061006C00280048006F006C0065003A007400610070007000650064002C0022003000220029002C00220025002500630022002C0048006F006C0065003A006E006F006D0069006E0061006C00200022002000220020006900660028006500710075006100
311
6C00280048006F006C0065003A0075006E006900740073002C0022003100220029002C002200780022002C0022002D0022002900200022002000220029003E003C0069006600280065007100750061006C00280048006F006C0065003A007400610070007000650064002C0022003000220029002C0048006F006C0065003A
311
006400690061002C0048006F006C0065003A0070006900740063006800640065007300630029003E0020007B005C00460041004D004700440054003B0078007D0020003C0069006600280065007100750061006C00280048006F006C0065003A007400650072006D0069006E006100740069006F006E002C00220030002200
311
29002C0048006F006C0065003A00640065007000740068002C0022005400480052005500220029003E005C0050007B005C00460041004D004700440054003B0077007D002500250063003C0048006F006C0065003A00630074006400690061003E0042950019401B401C001B0018401D00194008000C801173D003C0053005
311
400440050003A0044004500530043003E0020003C0053005400440050003A005300540044003E0042950019401B401C001B0018401D00194008000C4010C3D003C0053005400440050003A0044004500530043003E0042950019401B401C001B0018401D00194008000CC010B3D003C0053005400440050003A00530054004
311
4003E00C
161
               732
310
73CB81E85EB51B8BE3F2E07A17AD46E2F8FE00800030C02000000300012AFA1280A17480A15480A0480A0280E9014050340501407480A0280A0280A03A4050141D0140501D20280A3C81A0280E901405480A02A40D01456AAB9F503C
360
27F
330
27F
360
280
330
280
360
27E
330
27E
360
281
330
281
360
27C
360
27B
360
27D
330
27C
330
27B
330
27D
 94
        0
  0
ACAD_PROXY_OBJECT
  5
249
330
23D
100
AcDbProxyObject
 90
      499
 91
      554
 71
    33
 97
      157
 70
     0
162
                26
311
404E800C
161
               305
310
73CB81E85EB51B8BE3F2E07A17AD46E2F8FE00800030C02000000300012AFA1680A0280D55554C
 94
        0
  0
ACAD_PROXY_OBJECT
  5
24A
330
23D
100
AcDbProxyObject
 90
      499
 91
      555
 71
    33
 97
      157
 70
     0
162
              1098
311
510F400F0014C015001480154010C015000E8010C013C01340140017C013801040134011400F8008000F0014C015001480154010C015000E8015801240114015C017C013801040134011400F80080015801240114015C01700140014C010C010401300114008000F0014C015001480154010C015000E8014C0158017C014C0
311
10C01040130011400F800C
161
               332
310
73CB81E85EB51B8CE3F2E07A17AD46E2F8FE07800030C02000000300012AFA02808000000000001D07FC
340
11
 94
        0
  0
ACAD_PROXY_OBJECT
  5
24B
330
23D
100
AcDbProxyObject
 90
      499
 91
      556
 71
    33
 97
      157
 70
     0
162
                 0
161
               261
310
73CB81E85EB51B8BE3F2E07A17AD46E2F8FE00800030C02000000300012AFA0754
340
24F
 94
        0
  0
ACAD_PROXY_OBJECT
  5
24C
330
23D
100
AcDbProxyObject
 90
      499
 91
      557
 71
    33
 97
      157
 70
     0
162
               142
311
408F000F801023C003E0040DB0018C00CC00
161
               408
310
73CB81E85EB51B8BE3F2E07A17AD46E2F8FE00800030C02000000300012AFA08000000000000701F8000000000001C07E7FFFCFC
340
24D
340
0
340
0
340
25C
340
25D
340
0
340
25E
340
25F
340
264
340
0
340
25D
340
0
 94
        0
  0
ACAD_PROXY_OBJECT
  5
265
330
23D
100
AcDbProxyObject
 90
      499
 91
      559
 71
    33
 97
      157
 70
     0
162
             20912
311
44D300124014C01500080013C01180080010C013C013C0148011001240138010401500114014C0142470045004E0054005200410043004F002C0045004E0055002C0030002C004C0049005300540020004F004600200043004F004F005200440049004E0041005400450053002C00470045004E00540052004100540058002
311
C00250073002C002800470045004E004D00530047002000670065006E00640069006D007A00200033003000290043CF400F0011001940198018401D401B001D0015001A401D001B0019400F8010A48004F004C00450020005400410042004C0045004E51C01140138015001480104010C013C00B001140138015400B000C00
311
0B00120013C0130011400800150010401080130011400B0011C011401380150014801040150016000B0009401CC00B000A0011C011401380134014C011C0080019C019401B8019001A401B401E8008000CC00C400A4010F3D003C00440065006600610075006C0074005400690074006C0065003E004193C01480124011C01
311
2401380134470045004E0054005200410043004F002C0045004E0055002C0030002C004F0052004900470049004E002C00470045004E00540052004100540058002C00250073002C002800470045004E004D00530047002000670065006E00640069006D007A002000310029004193C01480124011C0124013801344700450
311
04E0054005200410043004F002C0045004E0055002C0030002C004F0052004900470049004E002C00470045004E00540052004100540058002C00250073002C002800470045004E004D00530047002000670065006E00640069006D007A0020003100290041120013C013001140132470045004E0054005200410043004F00
311
2C0045004E0055002C0030002C0048004F004C0045002C00470045004E00540052004100540058002C00250073002C002800470045004E004D00530047002000670065006E00640069006D007A00200032002900538F400F00124011800A00124014C0108013001040138012C00A0012001BC01B00194012401D0019401B40
311
0A400B0013C01C801A4019C01A401B800B00080012001BC01B00194012401D0019401B400A400F800F00124011800A00124014C0108013001040138012C00A0012001BC01B00194012401D0019401B400A400B00088008800B00080012001BC01B00194012401B80190019401E000A400F8010158004BD1C01140138015001
311
480104010C013C00B001140138015400B000C000B0016000B0011C011401380150014801040150016000B0009401CC00B000A0011C011401380134014C011C0080019C019401B8019001A401B401E8008000CC00A4010159004BD1C01140138015001480104010C013C00B001140138015400B000C000B0016400B0011C011
311
401380150014801040150016000B0009401CC00B000A0011C011401380134014C011C0080019C019401B8019001A401B401E8008000D000A4010152004BD1C01140138015001480104010C013C00B001140138015400B000C000B0014800B0011C011401380150014801040150016000B0009401CC00B000A0011C01140138
311
0134014C011C0080019C019401B8019001A401B401E8008000D800A401187B005C004600530059004D0042004F004C007C00420030007C00490030007C00430032007C00500030003B004A007D005191C01140138015001480104010C013C00B001140138015400B000C000B001EC01700118014C016401340108013C01300
311
1F0010800C001F0012400C001F0010C00C801F0014000C000EC012801F400B0011C011401380150014801040150016000B0009401CC00B000A0011C011401380134014C011C0080019C019401B8019001A401B401E8008000DC00A401032500250043004C51C01140138015001480104010C013C00B001140138015400B000
311
C000B000940094010C00B0011C011401380150014801040150016000B0009401CC00B000A0011C011401380134014C011C0080019C019401B8019001A401B401E8008000E000A4010B4400450053004300520049005000540049004F004E004E91C01140138015001480104010C013C00B001140138015400B000C000B0011
311
00114014C010C01480124014001500124013C013800B0011C011401380150014801040150016000B0009401CC00B000A0011C011401380134014C011C0080019C019401B8019001A401B401E8008000C800C000A401044900540045004D004CD1C01140138015001480104010C013C00B001140138015400B000C000B00124
311
01500114013400B0011C011401380150014801040150016000B0009401CC00B000A0011C011401380134014C011C0080019C019401B8019001A401B401E8008000C400D000A4010549004E004400450058004D11C01140138015001480104010C013C00B001140138015400B000C000B00124013801100114016000B0011C0
311
11401380150014801040150016000B0009401CC00B000A0011C011401380134014C011C0080019C019401B8019001A401B401E8008000C400D400A4010448004F004C0045004CD1C01140138015001480104010C013C00B001140138015400B000C000B00120013C0130011400B0011C011401380150014801040150016000
311
B0009401CC00B000A0011C011401380134014C011C0080019C019401B8019001A401B401E8008000C400D800A4010A48004F004C004500200049004E004400450058004E51C01140138015001480104010C013C00B001140138015400B000C000B00120013C0130011400800124013801100114016000B0011C01140138015
311
0014801040150016000B0009401CC00B000A0011C011401380134014C011C0080019C019401B8019001A401B401E8008000C400DC00A40109550053004500520020004900540045004D004E11C01140138015001480104010C013C00B001140138015400B000C000B00154014C011401480080012401500114013400B0011C
311
011401380150014801040150016000B0009401CC00B000A0011C011401380134014C011C0080019C019401B8019001A401B401E8008000C800C800A401035100540059004C91C01140138015001480104010C013C00B001140138015400B000C000B001440150016400B0011C011401380150014801040150016000B000940
311
1CC00B000A0011C011401380134014C011C0080019C019401B8019001A401B401E8008000C400E400A401085300540041004E0044004100520044004DD1C01140138015001480104010C013C00B001140138015400B000C000B0014C015001040138011001040148011000B0011C011401380150014801040150016000B000
311
9401CC00B000A0011C011401380134014C011C0080019C019401B8019001A401B401E8008000C800C400A4014E3D003C004900460028004900530042004C0041004E004B00280048006F006C0065004900740065006D0029002C004F0072006900670069006E002C00200048006F006C0065004900740065006D0029003E00
311
3C004900460028004900530042004C0041004E004B00280048006F006C0065004900740065006D0029002C00220022002C00200048006F006C00650049006E0064006500780029003E00CC
161
              7105
310
73CB81E85EB51B8BE3F2E07A17AD46E2F8FE00800030C02000000300012AFA46347FFFFFFFA020600005C0F42F5A8DC5F1FC01000061806808180001703D0BD6A3717C7F004000186018080F0201800000000000000000000000000000000F6295C8FC2F5487E5C0F42F5A8DC5F1FC01000061800F6295C8FC2F5487E5C0F4
310
2F5A8DC5F1FC0100006180403F8080F0201800000000000000000000000000000000F6295C8FC2F5487E5C0F42F5A8DC5F1FC01000061800F6295C8FC2F5487E5C0F42F5A8DC5F1FC0100006180403FA1C8821E88A0481A0882A0E862028722489A2A82A2483A288621A880000808000808200110A000101000101040021F4
310
0002020202020800446800040400040400008150000808000808000103A0001010001010000209400020200020206004168000404000404040083D000080800080020010CA0001010001010500A0340002020002020A0143A800040400040410008950000808000808280113A000101000101050022B40002020002020C004
310
528000404000400100086D22000CFFFFFFFF0026A6666666667A4FE7FFFFFFF819353333333333D27F3FFFFFFFC049A9999999999E93F9FFFFFFFE024D4CCCCCCCCCF49FCFFFFFFFF0226A6666666667A4FE7FFFFFFF811353333333333D27F3FFFFFFFC0D9FFFFFFFE0600000000000000204FFFFFFFF0026A66666666676
310
4FE7FFFFFFF801353333333333D27F3FFFFFFFC009A9999999999E93F9FFFFFFFE004D4CCCCCCCCCF49FCFFFFFFFF0026A6666666667A4FE7FFFFFFF819703D0BD6A371BC7F3FFFFFFFC0C67666666666606409FFFFFFFE880033FFFFFFFC009A9999999999E93F9FFFFFFFE064D4CCCCCCCCCF49FCFFFFFFFF0326A666666
310
6667A4FE7FFFFFFF819353333333333D27F3FFFFFFFC0C9A9999999999E93F9FFFFFFFE064D4CCCCCCCCCF49FCFFFFFFFF0367FFFFFFF81800000000000000813FFFFFFFC009A9999999999D93F9FFFFFFFE004D4CCCCCCCCCF49FCFFFFFFFF0326A6666666667A4FE7FFFFFFF801353333333333D27F3FFFFFFFC009A9999
310
999999E93F9FFFFFFFE065C0F42F5A8DC6F1FCFFFFFFFF0319D999999999819027FFFFFFFA088800000021E000000890000002260000008220E00020089000000206000200810000801FFFFFFFE812020002822200000008780000022400000089800000206000082220000000878000002240000008A8000001FFFFFFFF4C
340
0
340
0
340
0
340
0
340
11
340
11
 94
        0
  0
ACAD_PROXY_OBJECT
  5
266
330
23D
100
AcDbProxyObject
 90
      499
 91
      560
 71
    33
 97
      157
 70
     0
162
             10568
311
411040138014C0124010641004E00530049005F004300429040138014C0124017C0150012401500154014C011541004E00530049005F00420052005F005200650076006900730069006F006E006C00690073007400610044104008000A000E000B800D401E000C400C400B800C001A401B8018C01A000A4010641004E00530
311
049005F00410044518008000A000C800E000B800C001E000D000C000B800C001A401B8018C01A000A4010641004E00530049005F0046004450C008000A000C400DC00B800C001E000C800C800B800C001A401B8018C01A000A4010641004E00530049005F00430044508008000A000C400C400B800C001E000C400DC00B800
311
C001A401B8018C01A000A4010641004E00530049005F00420044510008000A000C800C800B800C001E000CC00D000B800C001A401B8018C01A000A4010641004E00530049005F00440044514008000A000CC00D000B800C001E000D000D000B800C001A401B8018C01A000A4010641004E00530049005F00450044D0401B80
311
1CC01A40080015001A401D001B001940080010801B001BC018C01AC00800104010C010C41004E00530049005F005400490054004C0045004100430044D0401B801CC01A40080015001A401D001B001940080010801B001BC018C01AC00800110010C010C41004E00530049005F005400490054004C00450044004300439540
311
14C0080015001A401D001B001940080010801B001BC018C01AC010A41004E00530049005F00540049005400550053004490401B801CC01A40080015001A401D001B001940080010801B001BC018C01AC00800104010B41004E00530049005F005400490054004C00450041004490401B801CC01A40080015001A401D001B00
311
1940080010801B001BC018C01AC00800110010B41004E00530049005F005400490054004C004500440044948019401D801A401CC01A401BC01B801B001A401CC01D000800104017C01500148017C011541004E00530049005F00540052005F005200650076006900730069006F006E006C0069007300740061004494801940
311
1D801A401CC01A401BC01B801B001A401CC01D000800104017C01080148017C011541004E00530049005F00420052005F005200650076006900730069006F006E006C00690073007400610044948019401D801A401CC01A401BC01B801B001A401CC01D000800110017C01500148017C011541004E00530049005F00540052
311
005F005200650076006900730069006F006E006C00690073007400640044948019401D801A401CC01A401BC01B801B001A401CC01D000800110017C01080148017C011541004E00530049005F00420052005F005200650076006900730069006F006E006C00690073007400640044948019401D801A401CC01A401BC01B801
311
B001A401CC01D000800104017C01500130017C011541004E00530049005F0054004C005F005200650076006900730069006F006E006C00690073007400610044948019401D801A401CC01A401BC01B801B001A401CC01D000800104017C01080130017C011541004E00530049005F0042004C005F005200650076006900730
311
069006F006E006C00690073007400610044948019401D801A401CC01A401BC01B801B001A401CC01D000800110017C01500130017C011541004E00530049005F0054004C005F005200650076006900730069006F006E006C00690073007400640044948019401D801A401CC01A401BC01B801B001A401CC01D000800110017
311
C01080130017C011541004E00530049005F0042004C005F005200650076006900730069006F006E006C006900730074006400A00
161
               498
310
73CB81E85EB51B8BE3F2E07A17AD46E2F8FE00800030C02000000300012AFB2E8320A84205400000000002015900000000000000324000000000000007100C
 94
        0
  0
FIELD
  5
276
102
{ACAD_REACTORS
330
275
102
}
330
275
100
AcDbField
  1
_text
  2
%<\_FldIdx 0>% %<\_FldIdx 1>%-%<\_FldIdx 2>%
 90
        3
360
277
360
279
360
27A
 97
        0
 91
       63
 92
        0
 94
        9
 95
        2
 96
        0
300

 93
        0
  7
ACFD_FIELD_VALUE
 93
        3
 90
        0
 94
        0
300

302

304
ACVALUE_END
301

 98
        0
  0
ACAD_PROXY_OBJECT
  5
27F
330
0
100
AcDbProxyObject
 90
      499
 91
      565
 71
    33
 97
      157
 70
     0
162
              4364
311
42950019401B401C001B0018401D00194008000C40005013D003C0069006600280065007100750061006C00280048006F006C0065003A007400610070007000650064002C0022003000220029002C00220025002500630022002C0048006F006C0065003A006E006F006D0069006E0061006C0020002200200022002000690
311
06600280065007100750061006C00280048006F006C0065003A0075006E006900740073002C0022003100220029002C002200780022002C0022002D0022002900200022002000220029003E003C0069006600280065007100750061006C00280048006F006C0065003A007400610070007000650064002C002200300022002
311
9002C0048006F006C0065003A006400690061002C0048006F006C0065003A0070006900740063006800640065007300630029003E0020007B005C00460041004D004700440054003B0078007D0020003C0069006600280065007100750061006C00280048006F006C0065003A007400650072006D0069006E0061007400690
311
06F006E002C0022003000220029002C0048006F006C0065003A00640065007000740068002C0022005400480052005500220029003E005C0050007B005C00460041004D004700440054003B0076007D002500250063003C0048006F006C0065003A00630074006400690061003E0020007B005C00460041004D00470044005
311
4003B0078007D0020003C0048006F006C0065003A0063007400640065007000740068003E00C
161
                29
310
73E0101C
 94
        0
  0
ACAD_PROXY_OBJECT
  5
280
330
0
100
AcDbProxyObject
 90
      499
 91
      565
 71
    33
 97
      157
 70
     0
162
              4244
311
42950019401B401C001B0018401D00194008000C401FE3D003C0069006600280065007100750061006C00280048006F006C0065003A007400610070007000650064002C0022003000220029002C00220025002500630022002C0048006F006C0065003A006E006F006D0069006E0061006C002000220020002200200069006
311
600280065007100750061006C00280048006F006C0065003A0075006E006900740073002C0022003100220029002C002200780022002C0022002D0022002900200022002000220029003E003C0069006600280065007100750061006C00280048006F006C0065003A007400610070007000650064002C00220030002200290
311
02C0048006F006C0065003A006400690061002C0048006F006C0065003A0070006900740063006800640065007300630029003E0020007B005C00460041004D004700440054003B0078007D0020003C0069006600280065007100750061006C00280048006F006C0065003A007400650072006D0069006E006100740069006
311
F006E002C0022003000220029002C0048006F006C0065003A00640065007000740068002C0022005400480052005500220029003E005C0050007B005C00460041004D004700440054003B0077007D002500250063003C0048006F006C0065003A00630074006400690061003E002000580020003C0048006F006C0065003A0
311
06300740061006E0067006C0065003E00250025006400C
161
                29
310
73E0101C
 94
        0
  0
ACAD_PROXY_OBJECT
  5
27E
330
0
100
AcDbProxyObject
 90
      499
 91
      565
 71
    33
 97
      157
 70
     0
162
              3492
311
42950019401B401C001B0018401D00194008000C401CF3D003C0069006600280065007100750061006C00280048006F006C0065003A007400610070007000650064002C0022003000220029002C00220025002500630022002C0048006F006C0065003A006E006F006D0069006E0061006C002000220020002200200069006
311
600280065007100750061006C00280048006F006C0065003A0075006E006900740073002C0022003100220029002C002200780022002C0022002D0022002900200022002000220029003E003C0069006600280065007100750061006C00280048006F006C0065003A007400610070007000650064002C00220030002200290
311
02C0048006F006C0065003A006400690061002C0048006F006C0065003A0070006900740063006800640065007300630029003E005C0050007B005C00460041004D004700440054003B0078007D0020003C0069006600280065007100750061006C00280048006F006C0065003A007400650072006D0069006E00610074006
311
9006F006E002C0022003000220029002C0048006F006C0065003A00640065007000740068002C0022005400480052005500220029003E00C
161
                29
310
73E0101C
 94
        0
  0
ACAD_PROXY_OBJECT
  5
281
330
0
100
AcDbProxyObject
 90
      499
 91
      565
 71
    33
 97
      157
 70
     0
162
              3924
311
42950019401B401C001B0018401D00194008000C401EA3D003C0069006600280065007100750061006C00280048006F006C0065003A007400610070007000650064002C0022003000220029002C00220025002500630022002C0048006F006C0065003A006E006F006D0069006E0061006C002000220020002200200069006
311
600280065007100750061006C00280048006F006C0065003A0075006E006900740073002C0022003100220029002C002200780022002C0022002D0022002900200022002000220029003E003C0069006600280065007100750061006C00280048006F006C0065003A007400610070007000650064002C00220030002200290
311
02C0048006F006C0065003A006400690061002C0048006F006C0065003A0070006900740063006800640065007300630029003E0020007B005C00460041004D004700440054003B0078007D0020003C0069006600280065007100750061006C00280048006F006C0065003A007400650072006D0069006E006100740069006
311
F006E002C0022003000220029002C0048006F006C0065003A00640065007000740068002C0022005400480052005500220029003E005C0050007B005C00460041004D004700440054003B0077007D002500250063003C0048006F006C0065003A00630074006400690061003E00C
161
                29
310
73E0101C
 94
        0
  0
ACAD_PROXY_OBJECT
  5
27C
330
0
100
AcDbProxyObject
 90
      499
 91
      565
 71
    33
 97
      157
 70
     0
162
               548
311
42950019401B401C001B0018401D00194008000C801173D003C0053005400440050003A0044004500530043003E0020003C0053005400440050003A005300540044003E00C
161
                29
310
73E01014
 94
        0
  0
ACAD_PROXY_OBJECT
  5
27B
330
0
100
AcDbProxyObject
 90
      499
 91
      565
 71
    33
 97
      157
 70
     0
162
               372
311
42950019401B401C001B0018401D00194008000C4010C3D003C0053005400440050003A0044004500530043003E00C
161
                29
310
73E0101C
 94
        0
  0
ACAD_PROXY_OBJECT
  5
27D
330
0
100
AcDbProxyObject
 90
      499
 91
      565
 71
    33
 97
      157
 70
     0
162
               356
311
42950019401B401C001B0018401D00194008000CC010B3D003C0053005400440050003A005300540044003E00C
161
                29
310
73E01014
 94
        0
  0
FIELD
  5
277
330
276
100
AcDbField
  1
AcVar
  2
\AcVar ViewType \f "%tc1"
 90
        0
 97
        0
 91
       63
 92
        0
 94
       43
 95
        2
 96
        0
300

 93
        1
  6
Variable
 93
        2
 90
        4
  1
ViewType
 94
        0
300

302

304
ACVALUE_END
  7
ACFD_FIELD_VALUE
 93
        1
 90
        0
 94
        0
300
%tc1
302

304
ACVALUE_END
301
----
 98
        4
  0
FIELD
  5
279
330
276
100
AcDbField
  1
AcVar
  2
\AcVar ViewSectionStartId
 90
        0
 97
        0
 91
       63
 92
        0
 94
       43
 95
        2
 96
        0
300

 93
        1
  6
Variable
 93
        2
 90
        4
  1
ViewSectionStartId
 94
        0
300

302

304
ACVALUE_END
  7
ACFD_FIELD_VALUE
 93
        1
 90
        0
 94
        0
300

302

304
ACVALUE_END
301
----
 98
        4
  0
FIELD
  5
27A
330
276
100
AcDbField
  1
AcVar
  2
\AcVar ViewSectionEndId
 90
        0
 97
        0
 91
       63
 92
        0
 94
       43
 95
        2
 96
        0
300

 93
        1
  6
Variable
 93
        2
 90
        4
  1
ViewSectionEndId
 94
        0
300

302

304
ACVALUE_END
  7
ACFD_FIELD_VALUE
 93
        1
 90
        0
 94
        0
300

302

304
ACVALUE_END
301
----
 98
        4
  0
ENDSEC
  0
SECTION
  2
ACDSDATA
 70
     2
 71
     8
  0
ACDSSCHEMA
 90
        0
  1
AcDb_Thumbnail_Schema
  2
AcDbDs::ID
280
    10
 91
        8
  2
Thumbnail_Data
280
    15
 91
        0
101
ACDSRECORD
 95
        0
 90
        1
  2
AcDbDs::TreatedAsObjectData
280
     1
291
     1
101
ACDSRECORD
 95
        0
 90
        2
  2
AcDbDs::Legacy
280
     1
291
     1
101
ACDSRECORD
  1
AcDbDs::ID
 90
        3
  2
AcDs:Indexable
280
     1
291
     1
101
ACDSRECORD
  1
AcDbDs::ID
 90
        4
  2
AcDbDs::HandleAttribute
280
     7
282
     1
  0
ACDSSCHEMA
 90
        1
  1
AcDbDs::TreatedAsObjectDataSchema
  2
AcDbDs::TreatedAsObjectData
280
     1
 91
        0
  0
ACDSSCHEMA
 90
        2
  1
AcDbDs::LegacySchema
  2
AcDbDs::Legacy
280
     1
 91
        0
  0
ACDSSCHEMA
 90
        3
  1
AcDbDs::IndexedPropertySchema
  2
AcDs:Indexable
280
     1
 91
        0
  0
ACDSSCHEMA
 90
        4
  1
AcDbDs::HandleAttributeSchema
  2
AcDbDs::HandleAttribute
280
     7
 91
        1
284
     1
  0
ACDSRECORD
 90
        0
  2
AcDbDs::ID
280
    10
320
59
  2
Thumbnail_Data
280
    15
 94
     2959
310
89504E470D0A1A0A0000000D49484452000000C500000100080300000034B4427100000300504C5445FFFFFFFFFFFFFFFFFF0000000000000000000000000000000000000000000000000000330000660000990000CC0000FF0033000033330033660033990033CC0033FF0066000066330066660066990066CC0066FF0099
310
000099330099660099990099CC0099FF00CC0000CC3300CC6600CC9900CCCC00CCFF00FF0000FF3300FF6600FF9900FFCC00FFFF3300003300333300663300993300CC3300FF3333003333333333663333993333CC3333FF3366003366333366663366993366CC3366FF3399003399333399663399993399CC3399FF33CC00
310
33CC3333CC6633CC9933CCCC33CCFF33FF0033FF3333FF6633FF9933FFCC33FFFF6600006600336600666600996600CC6600FF6633006633336633666633996633CC6633FF6666006666336666666666996666CC6666FF6699006699336699666699996699CC6699FF66CC0066CC3366CC6666CC9966CCCC66CCFF66FF0066
310
FF3366FF6666FF9966FFCC66FFFF9900009900339900669900999900CC9900FF9933009933339933669933999933CC9933FF9966009966339966669966999966CC9966FF9999009999339999669999999999CC9999FF99CC0099CC3399CC6699CC9999CCCC99CCFF99FF0099FF3399FF6699FF9999FFCC99FFFFCC0000CC00
310
33CC0066CC0099CC00CCCC00FFCC3300CC3333CC3366CC3399CC33CCCC33FFCC6600CC6633CC6666CC6699CC66CCCC66FFCC9900CC9933CC9966CC9999CC99CCCC99FFCCCC00CCCC33CCCC66CCCC99CCCCCCCCCCFFCCFF00CCFF33CCFF66CCFF99CCFFCCCCFFFFFF0000FF0033FF0066FF0099FF00CCFF00FFFF3300FF3333
310
FF3366FF3399FF33CCFF33FFFF6600FF6633FF6666FF6699FF66CCFF66FFFF9900FF9933FF9966FF9999FF99CCFF99FFFFCC00FFCC33FFCC66FFCC99FFCCCCFFCCFFFFFF00FFFF33FFFF66FFFF99FFFFCCFFFFFF0000000D0D0D1A1A1A2828283535354343435050505D5D5D6B6B6B787878868686939393A1A1A1AEAEAEBB
310
BBBBC9C9C9D6D6D6E4E4E4F1F1F1FFFFFF000000000000000000000000000000000000000000000000000000000000AD4AB4E40000068F4944415478DAED9C4996A3300C86F55E1D20D7A80B7098DAE53EB94F96DEF44DDC613038C5100ED0069B31CC992C5A7A748A18E8F021FD966C4240EEC140863B3090B007230AA220
310
0AA2200AA2F83F29E28DC63F62A314DB2E44FC91CB3F4191A5699226E773F19ADE9052E4E1A5B0C02B5EDD28474A21BE1CE17BC7C00B02F7AFA2C8E2DF737ECEDA07944D7647547C1171E02A0B52DF4D2013BEEF4B710275DA7A514D5EE0C5D06AB18F221717295CD771437951AE905E92C9D0974924B3F81AFDE690477E9A
310
A977324AD2D3F5F49B9F7FF37750B0351410BB41224410C69E9B427E0C731540FED11781F24AE8C4791644AA298EFCA317BA81F4D228B49042E93BF21CD78F2E525DF820CCAFBE7AE78681E3C8CC3B8AA317E5D2F3DC20727D2FCB02199CC03E0A485DF7E2B817D729241DF9E72C741585BC46FEF5E645D79308B2A2499CA2
310
63705340C1F9C914EC191479F4F7CB73BF2E657BEA07C273BCC817220AAE59A076487C5FE93BF48FAAE5A60250E49B2818672C618CF13FCC98E8FDBDB7151490395F8EFBE517AEC821BDCA248ECF6779CA922C8F8BC6B394499AFDCAE49CA89ED8B96EECA33824EA355114FA521F84C113CFF005E4B288A8D34D67EEE9C497
310
472AA01EA048E08E029E430199BC4A79CBB2E9B3D078719100B7519410054551D83D9F22CF56D8E6AC579CC44B2992154579F60045A275F11A0A30B5450E534B5D7F3CAC8BA7536C34BB74C1DF5CCCED82E245BAD84AB17474DCECFE4A5DBC8662648375BA58E90BD2857514B6E982F205E9827431DBD32ED4854E261653AC
310
98F946EE0BD205E50BCA1723BA803DE802BFBA4B08D2C51B4649B038F5594E31AB8B62D86ABD2F4817942F285FE0CF177C83BC51E40B3ED773D9A78BC5BE686DE8E9E2804C1725899EA76DE9E28050DD66C8FD87F36FC41400DF4989F1C7504829EDD2C5628C24018551DEEF6E3F4B21FACF567C886261319B14364801F71C
310
16FAA2D8EB1B4A0A7DEC842FCC19DA195106C21C311551D2EA0A44DB37AF226A58DDF2B3596F3A0B9A96E6DB2CB6F551B314A60BA867D5F051B4D6EA3ACA568A71AEA16AD05E8A35A324D414494FDDD33D82F5B3078642F67DC13FAEEE35B307E54936C75845B1F9C1105CBEE8EAC2525FE0D3C563B36AB8297AF9A24371E7
310
521B2A9025F90227C59D2EDA430A44143D5D74CC460A3E3BDB8CC117F337C830E8820FEBA29A1B44A2EE81FFF8A0CDA23E6A831DCC671D5053C0618C82D7140872F7C1B8C43C39D51E2561AA400E254A15583D5FE0A66807D2E72BF3D9DA5CED7128A26A8042DFA499EDEDDE4631D7FFE2A0983CA4F391B652CCF170DD4DAD
310
A2F864EE1EA358AF0BA27811C5684FFB298A4772F72C058A3A0A39459D323053F40C69352887E70B70CDFC37356CED0B747383720002C5DDC92644CA198F3B5500260AF35D837B084414C3A95C6BC2568AFB6D232AE9DC43B2926281D439E0A7A8BA5894DF0AEE43A0A3687B49025E8AF65439568AD6E71005511005515850
310
0DAEA218CCFA76503CF4EBB3E40B52F79CE788022F05DB892F184514512C18EC511D4514444114444114FF0B85BE2B899BA2BAB78A94A29EA29543F75691D551523B6407EA268AB7CFE474E7A47053347BEF80A233DAC346D1FD9E2DE85F03474DA117FD732698292A0C8E8662F804CABE8ADF3FBF8A8B42CB43CA1D50F03D
310
E4EE7D50A8D53DCC7082240AA2200AA2F84CD69B1B77E3A11879D41BB0FBC28C2BB0EBC2DA71F73E2856FFAEDA1E2876E10B40952F261E03008E93E26EC48D9E42CF7F20A6807A3E8A736BF3055B3658E58D33705200AF3A29732BC6468A9F59E36A51A6D77E7E905294183F3586951472D6CCA323CD8F1C23F505FFA9C2A9
310
0C299C1406C3660A2997C454F7AD7D148B8C77DFD94721D61BEF377C9A823178DC2C18B13E8103450542144441143829C4130C972FC42E226AF8AA0BA2F8484489858D44F106758B256D444114CBF385986D228AB7E56E31DD4214EFACA3447390F8741DC53698D0AFD06F983ECAD2F105DBB897DDA324A2D01B50D918055E
310
230AA2200AA2C04351162AE65F59B354C50B2B37E92DACDEC16CD05B8B3FD05AD787572D7AB54C5F4D237BD29D9B018A864327CD360598F304835353B41A6BFCE6949BA55EAB605750B4AE67FFB01E05B42858D3525DDEEA3236E7078D13D834458B92D5CE612BAA16D6BE0630435147548BAB899B0E43976224A258F3E9BD
310
4B026B7DD15030B4EA66ACEBF7110A86CAF64D4159CF260A648323A2208AB750501F451444411444F15A8A56AF9C1AC3384F7BB7676A6D369C8828A2B08782FA28A2200AA2200AA2200AFB29C21D18C83DD83F025C45C24F8C70350000000049454E44AE426082D683D531CA281B8B51261AB58D823A0A47A1CA2CA270310A
310
A12EAA44A5F9A9729647F242AA4DF516F27C42B3A1DE5ADE41EB71FDF2C748FDB05A84E520597FC6638C4272D44B7F9B029AFD8406E749D11A7CE2CB5D96DFCF470FD81914ADE3295F3648012D0A22471E87F77118E5FE817402794FD1A2244FE79019B917691F837731AAED09D2E292F3A6C3D0A518995144BEFBCB2181B9
310
BE9014C4D8184548D7EF23318A186563BAB083C2E55198F228C34ABC9118651E05B58DC2A9DB51B85ACFD57A4E178E6206456B6DB9356652B7998E2DDD37B46BFA9B18652005B58DC2C52847E1F2289747A1D645EB7F2A33EDD60A5F80A3C04671B1C080DB60FF00396096B5EE035B8F0000000049454E44AE42608254171D
310
0531D64711D2D7FB8C8F2246C99C5DD841E1F2284C79946153BC191F651E05B58DC259B7A370733D37D77376E1283EA050624B528B49D5663A17BA13B431FD858F329082DA46E17C94A3707994CBA350DB85F23F9599B6B44217E028B051041608701BE47FD782CB559433EA310000000049454E44AE4260824077693550F8
310
4BB188ABF6D82D50784591E337A05882FD0F537EF186A128F68A0000000049454E44AE426082
  0
ACDSRECORD
 90
        0
  2
AcDbDs::ID
280
    10
320
22
  2
Thumbnail_Data
280
    15
 94
     1793
310
89504E470D0A1A0A0000000D49484452000001000000007508030000009634CF9200000300504C5445FFFFFFFFFFFFFFFFFF0000000000000000000000000000000000000000000000000000330000660000990000CC0000FF0033000033330033660033990033CC0033FF0066000066330066660066990066CC0066FF0099
310
000099330099660099990099CC0099FF00CC0000CC3300CC6600CC9900CCCC00CCFF00FF0000FF3300FF6600FF9900FFCC00FFFF3300003300333300663300993300CC3300FF3333003333333333663333993333CC3333FF3366003366333366663366993366CC3366FF3399003399333399663399993399CC3399FF33CC00
310
33CC3333CC6633CC9933CCCC33CCFF33FF0033FF3333FF6633FF9933FFCC33FFFF6600006600336600666600996600CC6600FF6633006633336633666633996633CC6633FF6666006666336666666666996666CC6666FF6699006699336699666699996699CC6699FF66CC0066CC3366CC6666CC9966CCCC66CCFF66FF0066
310
FF3366FF6666FF9966FFCC66FFFF9900009900339900669900999900CC9900FF9933009933339933669933999933CC9933FF9966009966339966669966999966CC9966FF9999009999339999669999999999CC9999FF99CC0099CC3399CC6699CC9999CCCC99CCFF99FF0099FF3399FF6699FF9999FFCC99FFFFCC0000CC00
310
33CC0066CC0099CC00CCCC00FFCC3300CC3333CC3366CC3399CC33CCCC33FFCC6600CC6633CC6666CC6699CC66CCCC66FFCC9900CC9933CC9966CC9999CC99CCCC99FFCCCC00CCCC33CCCC66CCCC99CCCCCCCCCCFFCCFF00CCFF33CCFF66CCFF99CCFFCCCCFFFFFF0000FF0033FF0066FF0099FF00CCFF00FFFF3300FF3333
310
FF3366FF3399FF33CCFF33FFFF6600FF6633FF6666FF6699FF66CCFF66FFFF9900FF9933FF9966FF9999FF99CCFF99FFFFCC00FFCC33FFCC66FFCC99FFCCCCFFCCFFFFFF00FFFF33FFFF66FFFF99FFFFCCFFFFFF0000000D0D0D1A1A1A2828283535354343435050505D5D5D6B6B6B787878868686939393A1A1A1AEAEAEBB
310
BBBBC9C9C9D6D6D6E4E4E4F1F1F1FFFFFF000000000000000000000000000000000000000000000000000000000000AD4AB4E40000029B4944415478DAED9D4172C3200C4575035F2357F265B5F14DB463860547281083B1C1D8DD743AFAD2B4691A4F177AF9FA20853444FF3598C083D1738600201C98378EE1EA4D130000
310
0251D862A2ECD2AF0E4F0114026D22B800B2029001C4FC711510F38E25A05C01728DCB2341BB027A0057132433416C13B46510C5047B3738390300809B128857AC04CC044D01D60B40EC04097A15182F0412623B6026682688E801902678BD40000391273A81A03D20C960938F88F7FE0CC06B2B81DB3D4008DBC699400CE7
310
6BA80330BEF809215FF61D000F53023198BA1220B543D1AA876F6164138CA98201A845F19D0A630098EC04CF0004AF1DCE00BA1D93BA12988F4573DE0A1530EF861B1314D412E84D100B4067828A3D60540BDF81480650020C40F480DC0EB7F9AB07305C0F904AA091C092BE557BC0435C00480600B50A2C91413A12597682
310
78FB8065C91927059436516F3738B4046A0174FEA80DC093029403180CC79307DC0350B90C820178B30C8E00C0EC0352B20B1D03113400FED404699C083DE55FEF691D88CC87604DFE3087A59B8EB05182100680BB4A28F3505000B9FE31DF31B2BF308A0A60F77B0360000C4005D0FAA4E2B1F8D34B84EA01580914360660
310
0A804D0106C0F60106C0001800ED003C38000F0CA09E13475680D7EE01770D5FD316610268B6828800CA6198FC1319C0EE836000CECBA0EC95800B40B9025E6C85752BC0E60106C000600390C95151420400AE806B2F6000404DF068864015706C83F34C0413C0FEF618C128011E3702DFD3821000D641A4E73FDEAE2B2E80
310
F4B5E202C8045000F861947F1EA31E00B39B86D47B6A15F03219A865D0004001702F034F010EBD044E4FBA33008825E00CC0100690093A03000E801C772C1401E079B8E333E65CFF69736A3E708EFFEC8F0C80C56FE3070413B20D8016EAAB0000000049454E44AE42608277748F110FFDB5B00000000049454E44AE426082
310
950800BBA20402C89B909E2068C224F404753900962D311DDD01E3F09E802B4648FF353CEE6CF1FB01D0FE33BA7436ADDBE8E60789E3CF18C07EA71452FF4C01A0938068FF99024052B8F09F250087E02A3658E81640BEEE0B374D8032FF3B07D0DAA6D281102F05D4FB2F1200F65F2280C87F19375424FC9707E0E03F7300
310
E7D1A2411280F3E4B1A6C682147092C00260120500068001600018000680016000180006805E00D88B5345EB3A04B5000ADA0D4F05F09B7B6BC95480153D0484CF01ED93E03F68B27BC164A1A0370000000049454E44AE4260828688EDF14635154E6D8F9B3D20411C9151ED01E933426065AC2ECF036400F807F8CEB1750D
310
7255D40000000049454E44AE426082
  0
ENDSEC
  0
EOF
