  0
SECTION
  2
HEADER
  9
$ACADVER
  1
AC1009
  9
$INSBASE
 10
0.0
 20
0.0
 30
0.0
  9
$EXTMIN
 10
-33.792520227386461
 20
0.1601617043702196
 30
0.0
  9
$EXTMAX
 10
0.281643494894674
 20
25.71645834114948
 30
0.0
  9
$LIMMIN
 10
0.0
 20
0.0
  9
$LIMMAX
 10
30.0
 20
20.0
  9
$ORTHOMODE
 70
     1
  9
$REGENMODE
 70
     1
  9
$FILLMODE
 70
     1
  9
$QTEXTMODE
 70
     0
  9
$MIRRTEXT
 70
     0
  9
$DRAGMODE
 70
     2
  9
$LTSCALE
 40
1.0
  9
$OSMODE
 70
    55
  9
$ATTMODE
 70
     1
  9
$TEXTSIZE
 40
0.5244619964034976
  9
$TRACEWID
 40
0.05
  9
$TEXTSTYLE
  7
SMOOTH
  9
$CLAYER
  8
DIM
  9
$CELTYPE
  6
BYLAYER
  9
$CECOLOR
 62
   256
  9
$DIMSCALE
 40
1.0
  9
$DIMASZ
 40
0.25
  9
$DIMEXO
 40
0.1875
  9
$DIMDLI
 40
0.375
  9
$DIMRND
 40
0.0
  9
$DIMDLE
 40
0.0
  9
$DIMEXE
 40
0.18
  9
$DIMTP
 40
0.0
  9
$DIMTM
 40
0.0
  9
$DIMTXT
 40
0.375
  9
$DIMCEN
 40
0.09
  9
$DIMTSZ
 40
0.0
  9
$DIMTOL
 70
     0
  9
$DIMLIM
 70
     0
  9
$DIMTIH
 70
     1
  9
$DIMTOH
 70
     1
  9
$DIMSE1
 70
     0
  9
$DIMSE2
 70
     0
  9
$DIMTAD
 70
     0
  9
$DIMZIN
 70
     0
  9
$DIMBLK
  1

  9
$DIMASO
 70
     0
  9
$DIMSHO
 70
     1
  9
$DIMPOST
  1

  9
$DIMAPOST
  1

  9
$DIMALT
 70
     0
  9
$DIMALTD
 70
     2
  9
$DIMALTF
 40
25.399999999999999
  9
$DIMLFAC
 40
1.0
  9
$DIMTOFL
 70
     0
  9
$DIMTVP
 40
0.0
  9
$DIMTIX
 70
     0
  9
$DIMSOXD
 70
     0
  9
$DIMSAH
 70
     0
  9
$DIMBLK1
  1

  9
$DIMBLK2
  1

  9
$DIMSTYLE
  2
STANDARD
  9
$DIMCLRD
 70
   256
  9
$DIMCLRE
 70
   256
  9
$DIMCLRT
 70
   256
  9
$DIMTFAC
 40
1.0
  9
$DIMGAP
 40
0.15625
  9
$LUNITS
 70
     4
  9
$LUPREC
 70
     4
  9
$SKETCHINC
 40
0.1
  9
$FILLETRAD
 40
0.0
  9
$AUNITS
 70
     0
  9
$AUPREC
 70
     8
  9
$MENU
  1
acad
  9
$ELEVATION
 40
0.0
  9
$PELEVATION
 40
0.0
  9
$THICKNESS
 40
0.0
  9
$LIMCHECK
 70
     0
  9
$BLIPMODE
 70
     0
  9
$CHAMFERA
 40
0.0
  9
$CHAMFERB
 40
0.0
  9
$SKPOLY
 70
     0
  9
$TDCREATE
 40
2449555.4728885419
  9
$TDUPDATE
 40
2458179.6705490742
  9
$TDINDWG
 40
16.082641041700001
  9
$TDUSRTIMER
 40
16.082641041700001
  9
$USRTIMER
 70
     1
  9
$ANGBASE
 50
0.0
  9
$ANGDIR
 70
     0
  9
$PDMODE
 70
     0
  9
$PDSIZE
 40
0.0
  9
$PLINEWID
 40
0.0
  9
$COORDS
 70
     1
  9
$SPLFRAME
 70
     0
  9
$SPLINETYPE
 70
     6
  9
$SPLINESEGS
 70
     8
  9
$ATTDIA
 70
     1
  9
$ATTREQ
 70
     1
  9
$HANDLING
 70
     1
  9
$HANDSEED
  5
540BB
  9
$SURFTAB1
 70
     6
  9
$SURFTAB2
 70
     6
  9
$SURFTYPE
 70
     6
  9
$SURFU
 70
     6
  9
$SURFV
 70
     6
  9
$UCSNAME
  2

  9
$UCSORG
 10
0.0
 20
0.0
 30
0.0
  9
$UCSXDIR
 10
1.0
 20
0.0
 30
0.0
  9
$UCSYDIR
 10
0.0
 20
1.0
 30
0.0
  9
$PUCSNAME
  2

  9
$PUCSORG
 10
0.0
 20
0.0
 30
0.0
  9
$PUCSXDIR
 10
1.0
 20
0.0
 30
0.0
  9
$PUCSYDIR
 10
0.0
 20
1.0
 30
0.0
  9
$USERI1
 70
     0
  9
$USERI2
 70
     0
  9
$USERI3
 70
     0
  9
$USERI4
 70
     0
  9
$USERI5
 70
     0
  9
$USERR1
 40
0.0
  9
$USERR2
 40
0.0
  9
$USERR3
 40
0.0
  9
$USERR4
 40
0.0
  9
$USERR5
 40
0.0
  9
$WORLDVIEW
 70
     1
  9
$SHADEDGE
 70
     3
  9
$SHADEDIF
 70
    70
  9
$TILEMODE
 70
     1
  9
$MAXACTVP
 70
    16
  9
$PLIMCHECK
 70
     0
  9
$PEXTMIN
 10
1.0000000000000000E+020
 20
1.0000000000000000E+020
 30
1.0000000000000000E+020
  9
$PEXTMAX
 10
-1.0000000000000000E+020
 20
-1.0000000000000000E+020
 30
-1.0000000000000000E+020
  9
$PLIMMIN
 10
0.0
 20
0.0
  9
$PLIMMAX
 10
12.0
 20
9.0
  9
$UNITMODE
 70
     0
  9
$VISRETAIN
 70
     0
  9
$PLINEGEN
 70
     0
  9
$PSLTSCALE
 70
     0
  0
ENDSEC
  0
SECTION
  2
TABLES
  0
TABLE
  2
VPORT
 70
     1
  0
VPORT
  2
*ACTIVE
 70
     0
 10
0.0
 20
0.0
 11
1.0
 21
1.0
 12
-11.40136503326319
 22
12.940404117154911
 13
0.0
 23
0.0
 14
1.0
 24
1.0
 15
0.0
 25
0.0
 16
0.0
 26
0.0
 36
1.0
 17
0.0
 27
0.0
 37
0.0
 40
25.847775028974748
 41
2.608490566037736
 42
50.0
 43
0.0
 44
0.0
 50
0.0
 51
0.0
 71
     0
 72
   100
 73
     1
 74
     0
 75
     0
 76
     0
 77
     0
 78
     0
  0
ENDTAB
  0
TABLE
  2
LTYPE
 70
     2
  0
LTYPE
  2
CONTINUOUS
 70
     0
  3
Solid line
 72
    65
 73
     0
 40
0.0
  0
LTYPE
  2
HIDDEN
 70
     0
  3
__ __ __ __ __ __ __ __ __ __ __ __ __ __ __ __
 72
    65
 73
     2
 40
0.375
 49
0.25
 49
-0.125
  0
ENDTAB
  0
TABLE
  2
LAYER
 70
     7
  0
LAYER
  2
0
 70
     0
 62
     7
  6
CONTINUOUS
  0
LAYER
  2
OBJ
 70
     0
 62
     7
  6
CONTINUOUS
  0
LAYER
  2
DIM
 70
     0
 62
     7
  6
CONTINUOUS
  0
LAYER
  2
TITLE
 70
     0
 62
     7
  6
CONTINUOUS
  0
LAYER
  2
TITLE2
 70
     0
 62
     7
  6
CONTINUOUS
  0
LAYER
  2
DEFPOINTS
 70
     0
 62
     7
  6
CONTINUOUS
  0
LAYER
  2
HID
 70
     0
 62
     7
  6
HIDDEN
  0
ENDTAB
  0
TABLE
  2
STYLE
 70
     5
  0
STYLE
  2
STANDARD
 70
     0
 40
0.0
 41
1.0
 50
0.0
 71
     0
 42
0.2
  3
TXT
  4

  0
STYLE
  2
SMOOTH
 70
     0
 40
0.0
 41
1.0
 50
0.0
 71
     0
 42
0.5244619964034976
  3
txt
  4

  0
STYLE
  2
SIMPLEX
 70
     0
 40
0.0
 41
1.0
 50
0.0
 71
     0
 42
0.01
  3
txt
  4

  0
STYLE
  2
GG
 70
     0
 40
0.0078125
 41
1.0
 50
0.0
 71
     0
 42
0.0078125
  3
txt
  4

  0
STYLE
  2
GGATT
 70
     0
 40
0.0
 41
1.0
 50
0.0
 71
     0
 42
0.0104166666666678
  3
txt
  4

  0
ENDTAB
  0
TABLE
  2
VIEW
 70
     0
  0
ENDTAB
  0
TABLE
  2
UCS
 70
     0
  0
ENDTAB
  0
TABLE
  2
APPID
 70
    25
  0
APPID
  2
ACAD
 70
     0
  0
APPID
  2
ACAD_DSTYLE_DIMTEXT_FILL
 70
     0
  0
APPID
  2
ACAECLAYERSTANDARD
 70
     0
  0
APPID
  2
ACAD_PSEXT
 70
     0
  0
APPID
  2
RAK
 70
     0
  0
APPID
  2
ACAD_MLEADERVER
 70
     0
  0
APPID
  2
MCAD_NO_VIS
 70
     0
  0
APPID
  2
ACAD_TEMP_GRAPHIC
 70
     0
  0
APPID
  2
AD_DRAW
 70
     0
  0
APPID
  2
ACATTRIBSERVICES
 70
     0
  0
APPID
  2
DESIGNERASSEMBLIES
 70
     0
  0
APPID
  2
ACADM_DIM_EDIT
 70
     0
  0
APPID
  2
AMDT_DM_ADJ
 70
     0
  0
APPID
  2
DCO15
 70
     0
  0
APPID
  2
ACAD_EXEMPT_FROM_CAD_STANDARDS
 70
     0
  0
APPID
  2
ACAD_NAV_VCDISPLAY
 70
     0
  0
APPID
  2
ACAD_DSTYLE_DIMARC_LENGTH_
 70
     0
  0
APPID
  2
ACADANNOPO
 70
     0
  0
APPID
  2
ACAD_DSTYLE_DIMJAG
 70
     0
  0
APPID
  2
ACAD_DSTYLE_DIMTALN
 70
     0
  0
APPID
  2
ACAD_DSTYLE_DIMRADIAL_EXTENSION
 70
     0
  0
APPID
  2
ACCMTRANSPARENCY
 70
     0
  0
APPID
  2
GRADIENTCOLOR1ACI
 70
     0
  0
APPID
  2
GRADIENTCOLOR2ACI
 70
     0
  0
APPID
  2
CONTENTBLOCKICON
 70
     0
  0
ENDTAB
  0
TABLE
  2
DIMSTYLE
 70
     1
  0
DIMSTYLE
  2
STANDARD
 70
     0
  3

  4

  5

  6

  7

 40
1.0
 41
0.25
 42
0.125
 43
0.38
 44
0.18
 45
0.0
 46
0.0
 47
0.0
 48
0.0
140
0.375
141
0.09
142
0.0
143
25.399999999999999
144
1.0
145
0.0
146
1.0
147
0.09375
 71
     0
 72
     0
 73
     1
 74
     1
 75
     0
 76
     0
 77
     0
 78
     0
170
     0
171
     2
172
     0
173
     0
174
     0
175
     0
176
   256
177
   256
178
   256
  0
ENDTAB
  0
ENDSEC
  0
SECTION
  2
BLOCKS
  0
BLOCK
  8
0
  2
$MODEL_SPACE
 70
     0
 10
0.0
 20
0.0
 30
0.0
  3
$MODEL_SPACE
  1

  0
ENDBLK
  5
36
  8
0
  0
BLOCK
 67
     1
  8
0
  2
$PAPER_SPACE
 70
     0
 10
0.0
 20
0.0
 30
0.0
  3
$PAPER_SPACE
  1

  0
ENDBLK
  5
34
 67
     1
  8
0
  0
BLOCK
  8
0
  2
TITLEBLOCK2018
 70
     2
 10
0.0
 20
0.0
 30
0.0
  3
TITLEBLOCK2018
  1

  0
TEXT
  5
519AE
  8
TITLE
 10
-15.5080855019004
 20
22.839227868014159
 30
0.0
 40
0.8923397010612436
  1
CATALOG SHAPE
 41
0.5000000000000098
  7
GG
  0
TEXT
  5
519AF
  8
TITLE
 10
-20.665040879633459
 20
22.84950118295238
 30
0.0
 40
0.9043244580165586
  1
.
 41
0.5000000000000098
  7
GG
  0
TEXT
  5
519B0
  8
TITLE
 10
-29.57102643300615
 20
22.50308034591276
 30
0.0
 40
0.2702390500332978
  1
Title
 41
0.800530503978795
  7
SIMPLEX
  0
POLYLINE
  5
519B1
  8
TITLE
 66
     1
 10
0.0
 20
0.0
 30
0.0
 40
0.064375
 41
0.064375
  0
VERTEX
  5
539BE
  8
TITLE
 10
-33.757371477386471
 20
1.089099129173027
 30
0.0
  0
VERTEX
  5
539BF
  8
TITLE
 10
-2.6182998452608821
 20
1.089099129173027
 30
0.0
  0
SEQEND
  5
539C0
  8
TITLE
  0
POLYLINE
  5
519B2
  8
TITLE
 66
     1
 10
0.0
 20
0.0
 30
0.0
 40
0.064375
 41
0.064375
  0
VERTEX
  5
539C1
  8
TITLE
 10
-2.6182998452608821
 20
1.089099129173027
 30
0.0
  0
VERTEX
  5
539C2
  8
TITLE
 10
-2.6182998452608821
 20
24.42792617750569
 30
0.0
  0
SEQEND
  5
539C3
  8
TITLE
  0
POLYLINE
  5
519B3
  8
TITLE
 66
     1
 10
0.0
 20
0.0
 30
0.0
 40
0.064375
 41
0.064375
  0
VERTEX
  5
539C4
  8
TITLE
 10
-2.6182998452608821
 20
24.42792617750569
 30
0.0
  0
VERTEX
  5
539C5
  8
TITLE
 10
-33.757371477386471
 20
24.42792617750569
 30
0.0
  0
SEQEND
  5
539C6
  8
TITLE
  0
POLYLINE
  5
519B4
  8
TITLE
 66
     1
 10
0.0
 20
0.0
 30
0.0
 40
0.064375
 41
0.064375
  0
VERTEX
  5
539C7
  8
TITLE
 10
-33.757371477386471
 20
24.42792617750569
 30
0.0
  0
VERTEX
  5
539C8
  8
TITLE
 10
-33.757371477386471
 20
1.089099129173027
 30
0.0
  0
SEQEND
  5
539C9
  8
TITLE
  0
POLYLINE
  5
519B5
  8
TITLE
 66
     1
 10
0.0
 20
0.0
 30
0.0
 40
0.064375
 41
0.064375
  0
VERTEX
  5
539CA
  8
TITLE
 10
-8.4568757762866476
 20
24.42792617750569
 30
0.0
  0
VERTEX
  5
539CB
  8
TITLE
 10
-8.4568757762866476
 20
1.089099129173027
 30
0.0
  0
SEQEND
  5
539CC
  8
TITLE
  0
LINE
  5
519B6
  8
TITLE
 10
-8.4568757762866476
 20
21.516831973353781
 30
0.0
 11
-2.6182998452608821
 21
21.516831973353781
 31
0.0
  0
LINE
  5
519B7
  8
TITLE
 10
-8.4568757762866476
 20
19.762367964026559
 30
0.0
 11
-2.6182998452608821
 21
19.762367964026559
 31
0.0
  0
LINE
  5
519B8
  8
TITLE
 10
-8.4568757762866476
 20
17.938885741967919
 30
0.0
 11
-2.6182998452608821
 21
17.938885741967919
 31
0.0
  0
LINE
  5
519B9
  8
TITLE
 10
-8.4568757762866476
 20
17.209547396707599
 30
0.0
 11
-2.6182998452608821
 21
17.209547396707599
 31
0.0
  0
LINE
  5
519BA
  8
TITLE
 10
-8.4568757762866476
 20
16.480209051447272
 30
0.0
 11
-2.6182998452608821
 21
16.480209051447272
 31
0.0
  0
LINE
  5
519BB
  8
TITLE
 10
-8.4568757762866476
 20
15.75087070618695
 30
0.0
 11
-2.6182998452608821
 21
15.75087070618695
 31
0.0
  0
LINE
  5
519BC
  8
TITLE
 10
-8.4568757762866476
 20
15.02153236092663
 30
0.0
 11
-2.6182998452608821
 21
15.02153236092663
 31
0.0
  0
LINE
  5
519BD
  8
TITLE
 10
-8.4568757762866476
 20
14.292194015666309
 30
0.0
 11
-2.6182998452608821
 21
14.292194015666309
 31
0.0
  0
LINE
  5
519BE
  8
TITLE
 10
-8.4568757762866476
 20
13.562855670405989
 30
0.0
 11
-2.6182998452608821
 21
13.562855670405989
 31
0.0
  0
LINE
  5
519BF
  8
TITLE
 10
-8.4568757762866476
 20
12.557444474219951
 30
0.0
 11
-2.6182998452608821
 21
12.557444474219951
 31
0.0
  0
LINE
  5
519C0
  8
TITLE
 10
-8.4568757762866476
 20
11.828106128959631
 30
0.0
 11
-2.6182998452608821
 21
11.828106128959631
 31
0.0
  0
LINE
  5
519C1
  8
TITLE
 10
-8.4568757762866476
 20
11.09876778369931
 30
0.0
 11
-2.6182998452608821
 21
11.09876778369931
 31
0.0
  0
LINE
  5
519C2
  8
TITLE
 10
-8.4568757762866476
 20
9.6400910931786612
 30
0.0
 11
-2.6182998452608821
 21
9.6400910931786612
 31
0.0
  0
LINE
  5
519C3
  8
TITLE
 10
-8.4568757762866476
 20
8.910752747918341
 30
0.0
 11
-2.6182998452608821
 21
8.910752747918341
 31
0.0
  0
LINE
  5
519C4
  8
TITLE
 10
-8.4568757762866476
 20
8.1814144026580191
 30
0.0
 11
-2.6182998452608821
 21
8.1814144026580191
 31
0.0
  0
LINE
  5
519C5
  8
TITLE
 10
-8.4568757762866476
 20
7.4520760573976954
 30
0.0
 11
-2.6182998452608821
 21
7.4520760573976954
 31
0.0
  0
LINE
  5
519C6
  8
TITLE
 10
-8.4568757762866476
 20
6.7227377121373726
 30
0.0
 11
-2.6182998452608821
 21
6.7227377121373726
 31
0.0
  0
POLYLINE
  5
519C7
  8
TITLE
 66
     1
 10
0.0
 20
0.0
 30
0.0
 40
0.064375
 41
0.064375
  0
VERTEX
  5
539CD
  8
TITLE
 10
-8.4568757762866476
 20
5.9933993668768384
 30
0.0
  0
VERTEX
  5
539CE
  8
TITLE
 10
-2.6182998452608821
 20
5.9933993668768384
 30
0.0
  0
SEQEND
  5
539CF
  8
TITLE
  0
TEXT
  5
519C8
  8
TITLE
 10
-8.2136017791606992
 20
21.152162800723609
 30
0.0
 40
0.233388270483323
  1
DRAWING:
 41
0.6671087533156612
  7
GG
  0
TEXT
  5
519C9
  8
TITLE
 10
-8.2136017791606992
 20
19.329652666168229
 30
0.0
 40
0.233388270483323
  1
PROJECT:
 41
0.6671087533156612
  7
GG
  0
TEXT
  5
519CA
  8
TITLE
 10
-8.2136017791606992
 20
17.574216569337761
 30
0.0
 40
0.2333882704833194
  1
PAGE:
 41
0.6671087533156717
  7
GG
  0
TEXT
  5
519CB
  8
TITLE
 10
-5.6073411886106683
 20
17.574216569337761
 30
0.0
 40
0.2333882704833194
  1
DATE:
 41
0.6671087533156714
  7
GG
  0
TEXT
  5
519CC
  8
TITLE
 10
-8.2136017791606992
 20
16.84487822407743
 30
0.0
 40
0.233388270483323
  1
ARCHITECT:
 41
0.6671087533156612
  7
GG
  0
TEXT
  5
519CD
  8
TITLE
 10
-8.2136017791606992
 20
16.11553987881712
 30
0.0
 40
0.2333882704833212
  1
CUSTOMER:
 41
0.6671087533156664
  7
GG
  0
TEXT
  5
519CE
  8
TITLE
 10
-8.2136017791606992
 20
15.38620153355679
 30
0.0
 40
0.2333882704833212
  1
SALES REP:
 41
0.6671087533156664
  7
GG
  0
TEXT
  5
519CF
  8
TITLE
 10
-8.2136017791606992
 20
14.65686318829647
 30
0.0
 40
0.2333882704833212
  1
SALES OFFICE:
 41
0.6671087533156664
  7
GG
  0
TEXT
  5
519D0
  8
TITLE
 10
-8.2136017791606992
 20
13.92752484303614
 30
0.0
 40
0.233388270483323
  1
PLANT:
 41
0.6671087533156612
  7
GG
  0
TEXT
  5
519D1
  8
TITLE
 10
-8.2136017791606992
 20
13.19818649777582
 30
0.0
 40
0.2333882704833212
  1
BRICK NAME:
 41
0.6671087533156664
  7
GG
  0
TEXT
  5
519D2
  8
TITLE
 10
-8.2136017791606992
 20
12.192775301589791
 30
0.0
 40
0.2333882704833212
  1
BRICK TYPE:
 41
0.6671087533156664
  7
GG
  0
TEXT
  5
519D3
  8
TITLE
 10
-8.2136017791606992
 20
11.46343695632947
 30
0.0
 40
0.2333882704833212
  1
TEXTURE:
 41
0.6671087533156664
  7
GG
  0
TEXT
  5
519D4
  8
TITLE
 10
-8.2136017791606992
 20
9.2754219205485011
 30
0.0
 40
0.2333882704833212
  1
CORING:
 41
0.6671087533156664
  7
GG
  0
TEXT
  5
519D5
  8
TITLE
 10
-8.2136017791606992
 20
8.5460835752881792
 30
0.0
 40
0.2333882704833212
  1
SIZE:
 41
0.8005305039787968
  7
SIMPLEX
  0
TEXT
  5
519D6
  8
TITLE
 10
-5.5945121978335273
 20
8.5460835752881792
 30
0.0
 40
0.2333882704833212
  1
BOND:
 41
0.8005305039787968
  7
SIMPLEX
  0
TEXT
  5
519D7
  8
TITLE
 10
-8.2136017791606992
 20
7.8167452300278573
 30
0.0
 40
0.2333882704833221
  1
ASTM STANDARD:
 41
0.8005305039787938
  7
SIMPLEX
  0
TEXT
  5
519D8
  8
TITLE
 10
-8.2136017791606992
 20
7.0874068847675344
 30
0.0
 40
0.2333882704833221
  1
COMPUTER FILE:
 41
0.8005305039787938
  7
SIMPLEX
  0
TEXT
  5
519D9
  8
TITLE
 10
-8.2136017791606992
 20
6.3580685395072098
 30
0.0
 40
0.2333882704833221
  1
DRAWN BY:
 41
0.8005305039787938
  7
SIMPLEX
  0
TEXT
  5
519DA
  8
TITLE
 10
-8.1819323313537815
 20
10.78160029004715
 30
0.0
 40
0.2333882704833212
  1
NUMBER OF
 41
0.8005305039787968
  7
SIMPLEX
  0
TEXT
  5
519DB
  8
TITLE
 10
-8.1254847719344951
 20
10.443197090522339
 30
0.0
 40
0.233388270483323
  1
FINISHED FACES:
 41
0.8005305039787904
  7
SIMPLEX
  0
TEXT
  5
519DC
  8
TITLE
 10
-8.3515441957258254
 20
5.623390379414321
 30
0.0
 40
0.2567270975316337
  1
This document is the property 
 41
0.8005305039787934
  7
SIMPLEX
  0
TEXT
  5
519DD
  8
TITLE
 10
-8.3515441957258254
 20
5.1255361282437493
 30
0.0
 40
0.2567270975316355
  1
of GLEN-GERY CORPORATION and
 41
0.8005305039787876
  7
SIMPLEX
  0
TEXT
  5
519DE
  8
TITLE
 10
-8.3515441957258254
 20
4.6996163523143757
 30
0.0
 40
0.2567270975316355
  1
may not be reproduced without
 41
0.8005305039787876
  7
SIMPLEX
  0
TEXT
  5
519DF
  8
TITLE
 10
-8.3515441957258254
 20
4.2377293387644093
 30
0.0
 40
0.2567270975316318
  1
written permission from the
 41
0.8005305039787991
  7
SIMPLEX
  0
TEXT
  5
519E0
  8
TITLE
 10
-8.3515441957258254
 20
3.7933399002731081
 30
0.0
 40
0.2567270975316337
  1
appropriate Glen-Gery 
 41
0.8005305039787934
  7
SIMPLEX
  0
TEXT
  5
519E1
  8
TITLE
 10
-8.3515441957258254
 20
3.3683922118469991
 30
0.0
 40
0.2567270975316337
  1
Representative. The contents 
 41
0.8005305039787934
  7
SIMPLEX
  0
TEXT
  5
519E2
  8
TITLE
 10
-8.3515441957258254
 20
2.943444523420891
 30
0.0
 40
0.2567270975316337
  1
of this document are advisory 
 41
0.8005305039787934
  7
SIMPLEX
  0
TEXT
  5
519E3
  8
TITLE
 10
-8.3515441957258254
 20
2.517524747491525
 30
0.0
 40
0.2567270975316337
  1
only. Responsibility for 
 41
0.8005305039787934
  7
SIMPLEX
  0
TEXT
  5
519E4
  8
TITLE
 10
-8.3515441957258254
 20
2.110074634124087
 30
0.0
 40
0.2567270975316337
  1
accuracy and applicability lies 
 41
0.8005305039787934
  7
SIMPLEX
  0
TEXT
  5
519E5
  8
TITLE
 10
-8.3268928293692142
 20
1.6306900455154449
 30
0.0
 40
0.2567270975316337
  1
entirely with the Project 
 41
0.8005305039787938
  7
SIMPLEX
  0
TEXT
  5
519E6
  8
TITLE
 10
-8.3515441957258254
 20
1.2417095947099399
 30
0.0
 40
0.2567270975316337
  1
Designer and/or Owner.
 41
0.8005305039787934
  7
SIMPLEX
  0
TEXT
  5
519E7
  8
TITLE
 10
-33.589233693619683
 20
22.53503235919726
 30
0.0
 40
0.2567270975316355
  1
Signature
 41
0.8005305039787874
  7
SIMPLEX
  0
TEXT
  5
519E8
  8
TITLE
 10
-33.652039896825642
 20
23.560062938872601
 30
0.0
 40
0.2917353381041299
  1
faces, and specifications and I agree to them.
 41
0.8005305039787916
  7
SIMPLEX
  0
TEXT
  5
519E9
  8
TITLE
 10
-33.652039896825642
 20
24.05791719004317
 30
0.0
 40
0.2917353381041263
  1
This drawing has been reviewed for dimensions,
 41
0.8005305039788017
  7
SIMPLEX
  0
LINE
  5
519EA
  8
TITLE
 10
-33.726699250059887
 20
22.838521489005618
 30
0.0
 11
-23.814614652752169
 21
22.838521489005618
 31
0.0
  0
TEXT
  5
519EB
  8
TITLE
 10
-26.179633573930641
 20
22.53503235919726
 30
0.0
 40
0.2567270975316355
  1
Date
 41
0.8005305039787879
  7
SIMPLEX
  0
POLYLINE
  5
519EC
  8
TITLE
 66
     1
 10
0.0
 20
0.0
 30
0.0
 40
0.064375
 41
0.064375
  0
VERTEX
  5
539D0
  8
TITLE
 10
-33.757371477386471
 20
22.369781862573198
 30
0.0
  0
VERTEX
  5
539D1
  8
TITLE
 10
-23.814614652752169
 20
22.369781862573198
 30
0.0
  0
SEQEND
  5
539D2
  8
TITLE
  0
POLYLINE
  5
519ED
  8
TITLE
 66
     1
 10
0.0
 20
0.0
 30
0.0
 40
0.064375
 41
0.064375
  0
VERTEX
  5
539D3
  8
TITLE
 10
-23.814614652752169
 20
22.369781862573198
 30
0.0
  0
VERTEX
  5
539D4
  8
TITLE
 10
-23.814614652752169
 20
24.42792617750569
 30
0.0
  0
SEQEND
  5
539D5
  8
TITLE
  0
TEXT
  5
519EE
  8
TITLE
 10
-8.2136017791606992
 20
10.004760265808819
 30
0.0
 40
0.233388270483323
  1
TEXTURE DIRECTION:
 41
0.6671087533156612
  7
GG
  0
LINE
  5
519EF
  8
TITLE
 10
-8.4568757762866476
 20
10.36942943843898
 30
0.0
 11
-2.6182998452608821
 21
10.36942943843898
 31
0.0
  0
POLYLINE
  5
519F0
  8
TITLE
 66
     1
 10
0.0
 20
0.0
 30
0.0
 40
0.064375
 41
0.064375
  0
VERTEX
  5
539D6
  8
TITLE
 10
-23.814614652752169
 20
22.369781862573198
 30
0.0
  0
VERTEX
  5
539D7
  8
TITLE
 10
-16.491537129062579
 20
22.369781862573198
 30
0.0
  0
SEQEND
  5
539D8
  8
TITLE
  0
LINE
  5
519F1
  8
TITLE
 10
-16.491537129062579
 20
22.369781862573198
 30
0.0
 11
-16.491537129062579
 21
24.42792617750569
 31
0.0
  0
TEXT
  5
519F2
  8
TITLE
 10
-23.533946274646311
 20
23.00930532082182
 30
0.0
 40
0.7001648114499104
  1
Qty :
 41
0.8005305039787931
  7
SIMPLEX
  0
LINE
  5
519F3
  8
TITLE
 10
-21.128102672234618
 20
22.742173676513961
 30
0.0
 11
-16.76655935776051
 21
22.742173676513961
 31
0.0
  0
ATTDEF
  5
519F6
  8
TITLE2
 10
-8.0531348495600241
 20
20.605159041778379
 30
0.0
 40
0.364669172630178
  1
N/A
 41
0.8005305039787987
  7
GGATT
  3
Drawing Title [line 1 of 2]:
  2
DWG1
 70
     0
  0
ATTDEF
  5
519F7
  8
TITLE2
 10
-8.0531348495600241
 20
19.997377087394771
 30
0.0
 40
0.364669172630178
  1
N/A
 41
0.8005305039787987
  7
GGATT
  3
Drawing Title [line 2 of 2]:
  2
DWG2
 70
     0
  0
ATTDEF
  5
519F8
  8
TITLE2
 10
-8.0531348495600241
 20
18.782648907222988
 30
0.0
 40
0.3646691726301817
  1
N/A
 41
0.8005305039787907
  7
GGATT
  3
PROJECT Name [line 1 of 2]:
  2
PROJ1
 70
     0
  0
ATTDEF
  5
519F9
  8
TITLE2
 10
-8.0531348495600241
 20
18.174866952839391
 30
0.0
 40
0.3646691726301817
  1
N/A
 41
0.8005305039787907
  7
GGATT
  3
PROJECT Name [line 2 of 2]:
  2
PROJ2
 70
     0
  0
ATTDEF
  5
519FA
  8
TITLE2
 10
-7.2400289630169432
 20
17.452660178461471
 30
0.0
 40
0.2431127817534672
  1
1 of 1
 41
0.8005305039787947
  7
GGATT
  3
PAGE NO. 
  2
PAGE
 70
     0
  0
ATTDEF
  5
519FB
  8
TITLE2
 10
-4.6465973632439086
 20
17.452660178461471
 30
0.0
 40
0.2431127817534672
  1
N/A
 41
0.8005305039787943
  7
GGATT
  3
DATE [DDMMMYY]:
  2
DATE
 70
     0
  0
ATTDEF
  5
519FC
  8
TITLE2
 10
-6.4591596990101721
 20
16.723321833201119
 30
0.0
 40
0.2431127817534691
  1
N/A
 41
0.8005305039787886
  7
GGATT
  3
DESIGN FIRM NAME:
  2
ARCH
 70
     0
  0
ATTDEF
  5
519FD
  8
TITLE2
 10
-6.4591596990101721
 20
15.993983487940779
 30
0.0
 40
0.2431127817534691
  1
N/A
 41
0.8005305039787886
  7
GGATT
  3
CUSTOMER NAME:
  2
CUST
 70
     0
  0
ATTDEF
  5
519FE
  8
TITLE2
 10
-6.4591596990101721
 20
15.26464514268041
 30
0.0
 40
0.2431127817534691
  1
N/A
 41
0.8005305039787886
  7
GGATT
  3
SALES REPRESENTATIVE:
  2
REP
 70
     0
  0
ATTDEF
  5
519FF
  8
TITLE2
 10
-6.134794369508878
 20
14.535306797420059
 30
0.0
 40
0.2431127817534691
  1
N/A
 41
0.8005305039787886
  7
GGATT
  3
PRIMARY SALES OFFICE:
  2
OFFICE
 70
     0
  0
ATTDEF
  5
51A00
  8
TITLE2
 10
-6.8350491287794064
 20
13.805968452159711
 30
0.0
 40
0.2431127817534691
  1
N/A
 41
0.8005305039787959
  7
GGATT
  3
BRICK PRODUCED AT WHAT PLANT ?
  2
PLANT
 70
     0
  0
ATTDEF
  5
51A01
  8
TITLE2
 10
-7.8941287090322687
 20
12.67613005555644
 30
0.0
 40
0.3640857019539519
  1
N/A
 41
0.800530503978797
  7
GGATT
  3
BRICK NAME:
  2
BRICK
 70
     0
  0
ATTDEF
  5
51A02
  8
TITLE2
 10
-6.5720548178487119
 20
12.071218910713309
 30
0.0
 40
0.2431127817534691
  1
N/A
 41
0.8005305039787963
  7
GGATT
  3
MOLDED, EXTRUDED, HANDMADE OR REPRESSED?
  2
PROCESS
 70
     0
  0
ATTDEF
  5
51A03
  8
TITLE2
 10
-4.6258628408409841
 20
12.071218910713309
 30
0.0
 40
0.2431127817534691
  1
N/A
 41
0.8005305039787959
  7
GGATT
  3
FLASHED OR CLEARBURN?
  2
BURN
 70
     0
  0
ATTDEF
  5
51A04
  8
TITLE2
 10
-6.8350491287794064
 20
11.34188056545297
 30
0.0
 40
0.2431127817534691
  1
N/A
 41
0.8005305039787959
  7
GGATT
  3
TEXTURE FOR FINISHED FACES?
  2
TEXT
 70
     0
  0
ATTDEF
  5
51A05
  8
TITLE2
 10
-4.8888571517716954
 20
10.612542220192619
 30
0.0
 40
0.2431127817534709
  1
N/A
 41
0.8005305039787897
  7
GGATT
  3
TOTAL NO. OF FINISHED FACES PER UNIT?
  2
FACE
 70
     0
  0
ATTDEF
  5
51A06
  8
TITLE2
 10
-6.8350491287794064
 20
9.1538655296719522
 30
0.0
 40
0.24311278175347
  1
PLANT OPTION
 41
0.8005305039787929
  7
GGATT
  3
AS SHOWN/UNCORED/PLANT OPTION?
  2
CORING
 70
     0
  0
ATTDEF
  5
51A07
  8
TITLE2
 10
-7.1594144582806889
 20
8.4245271844116036
 30
0.0
 40
0.24311278175347
  1
N/A
 41
0.8005305039787929
  7
GGATT
  3
SIZE OF SURROUNDING BRICK?
  2
SIZE
 70
     0
  0
ATTDEF
  5
51A08
  8
TITLE2
 10
-4.5644918222704121
 20
8.4245271844116036
 30
0.0
 40
0.24311278175347
  1
N/A
 41
0.8005305039787929
  7
GGATT
  3
BOND PATTERN OF SURROUNDING BRICKWORK?
  2
BOND
 70
     0
  0
ATTDEF
  5
51A09
  8
TITLE2
 10
-5.3986184360624421
 20
7.6951888391512613
 30
0.0
 40
0.2431127817534672
  1
C216, FBS, SW
 41
0.8005305039787939
  7
GGATT
  3
ENTER THE ASTM STANDARD ?
  2
ASTM
 70
     0
  0
ATTDEF
  5
51A0A
  8
TITLE2
 10
-5.38301550997038
 20
6.9658504938909109
 30
0.0
 40
0.2431127817534672
  1
N/A
 41
0.8005305039787943
  7
GGATT
  3
COMPUTER FILE [INCLUDE PATH AND DRIVE]:
  2
FILE
 70
     0
  0
ATTDEF
  5
51A0B
  8
TITLE2
 10
-6.1217572415722472
 20
6.2365121486305677
 30
0.0
 40
0.2431127817534672
  1
N/A
 41
0.8005305039787947
  7
GGATT
  3
DRAWN BY:
  2
BY
 70
     0
  0
ATTDEF
  5
51A0C
  8
TITLE2
 10
-5.5583678395734921
 20
9.8530691623312308
 30
0.0
 40
0.2431127817534691
  1
PLANT OPTION
 41
0.8005305039787959
  7
GGATT
  3
AS SHOWN/PLANT OPTION?
  2
TEXTURE
 70
     0
  0
ENDBLK
  5
519AD
  8
0
  0
BLOCK
  8
0
  2
*X1
 70
     1
 10
0.0
 20
0.0
 30
0.0
  3
*X1
  1

  0
LINE
  5
539DA
  8
0
 62
     0
 10
-11.02751439224993
 20
0.6900950144695576
 30
0.0
 11
-11.02751439224993
 21
0.6900950144695576
 31
0.0
  0
LINE
  5
539DB
  8
0
 62
     0
 10
-11.0999044489739
 20
0.6177049577455848
 30
0.0
 11
-11.0999044489739
 21
0.6177049577455848
 31
0.0
  0
LINE
  5
539DC
  8
0
 62
     0
 10
-11.063709420611911
 20
0.7986800995555189
 30
0.0
 11
-11.063709420611911
 21
0.7986800995555189
 31
0.0
  0
LINE
  5
539DD
  8
0
 62
     0
 10
-11.13609947733589
 20
0.7262900428315461
 30
0.0
 11
-11.13609947733589
 21
0.7262900428315461
 31
0.0
  0
LINE
  5
539DE
  8
0
 62
     0
 10
-11.20848953405986
 20
0.6538999861075733
 30
0.0
 11
-11.20848953405986
 21
0.6538999861075733
 31
0.0
  0
LINE
  5
539DF
  8
0
 62
     0
 10
-11.28087959078383
 20
0.5815099293836005
 30
0.0
 11
-11.28087959078383
 21
0.5815099293836005
 31
0.0
  0
LINE
  5
539E0
  8
0
 62
     0
 10
-11.02751439224993
 20
0.9796552413654502
 30
0.0
 11
-11.02751439224993
 21
0.9796552413654502
 31
0.0
  0
LINE
  5
539E1
  8
0
 62
     0
 10
-11.0999044489739
 20
0.9072651846414775
 30
0.0
 11
-11.0999044489739
 21
0.9072651846414775
 31
0.0
  0
LINE
  5
539E2
  8
0
 62
     0
 10
-11.17229450569787
 20
0.8348751279175045
 30
0.0
 11
-11.17229450569787
 21
0.8348751279175045
 31
0.0
  0
LINE
  5
539E3
  8
0
 62
     0
 10
-11.244684562421851
 20
0.7624850711935319
 30
0.0
 11
-11.244684562421851
 21
0.7624850711935319
 31
0.0
  0
LINE
  5
539E4
  8
0
 62
     0
 10
-11.317074619145821
 20
0.6900950144695591
 30
0.0
 11
-11.317074619145821
 21
0.6900950144695591
 31
0.0
  0
LINE
  5
539E5
  8
0
 62
     0
 10
-11.389464675869791
 20
0.6177049577455862
 30
0.0
 11
-11.389464675869791
 21
0.6177049577455862
 31
0.0
  0
LINE
  5
539E6
  8
0
 62
     0
 10
-11.063709420611911
 20
1.0882403264514089
 30
0.0
 11
-11.063709420611911
 21
1.0882403264514089
 31
0.0
  0
LINE
  5
539E7
  8
0
 62
     0
 10
-11.136099477335881
 20
1.015850269727437
 30
0.0
 11
-11.136099477335881
 21
1.015850269727437
 31
0.0
  0
LINE
  5
539E8
  8
0
 62
     0
 10
-11.20848953405986
 20
0.9434602130034642
 30
0.0
 11
-11.20848953405986
 21
0.9434602130034642
 31
0.0
  0
LINE
  5
539E9
  8
0
 62
     0
 10
-11.28087959078383
 20
0.8710701562794914
 30
0.0
 11
-11.28087959078383
 21
0.8710701562794914
 31
0.0
  0
LINE
  5
539EA
  8
0
 62
     0
 10
-11.353269647507799
 20
0.7986800995555187
 30
0.0
 11
-11.353269647507799
 21
0.7986800995555187
 31
0.0
  0
LINE
  5
539EB
  8
0
 62
     0
 10
-11.42565970423178
 20
0.7262900428315459
 30
0.0
 11
-11.42565970423178
 21
0.7262900428315459
 31
0.0
  0
LINE
  5
539EC
  8
0
 62
     0
 10
-11.49804976095575
 20
0.6538999861075731
 30
0.0
 11
-11.49804976095575
 21
0.6538999861075731
 31
0.0
  0
LINE
  5
539ED
  8
0
 62
     0
 10
-11.57043981767972
 20
0.5815099293836004
 30
0.0
 11
-11.57043981767972
 21
0.5815099293836004
 31
0.0
  0
LINE
  5
539EE
  8
0
 62
     0
 10
-11.17229450569787
 20
1.1244353548133961
 30
0.0
 11
-11.17229450569787
 21
1.1244353548133961
 31
0.0
  0
LINE
  5
539EF
  8
0
 62
     0
 10
-11.24468456242184
 20
1.052045298089423
 30
0.0
 11
-11.24468456242184
 21
1.052045298089423
 31
0.0
  0
LINE
  5
539F0
  8
0
 62
     0
 10
-11.31707461914581
 20
0.9796552413654506
 30
0.0
 11
-11.31707461914581
 21
0.9796552413654506
 31
0.0
  0
LINE
  5
539F1
  8
0
 62
     0
 10
-11.389464675869791
 20
0.9072651846414777
 30
0.0
 11
-11.389464675869791
 21
0.9072651846414777
 31
0.0
  0
LINE
  5
539F2
  8
0
 62
     0
 10
-11.461854732593761
 20
0.8348751279175048
 30
0.0
 11
-11.461854732593761
 21
0.8348751279175048
 31
0.0
  0
LINE
  5
539F3
  8
0
 62
     0
 10
-11.534244789317739
 20
0.7624850711935322
 30
0.0
 11
-11.534244789317739
 21
0.7624850711935322
 31
0.0
  0
LINE
  5
539F4
  8
0
 62
     0
 10
-11.606634846041709
 20
0.6900950144695595
 30
0.0
 11
-11.606634846041709
 21
0.6900950144695595
 31
0.0
  0
LINE
  5
539F5
  8
0
 62
     0
 10
-11.679024902765679
 20
0.6177049577455867
 30
0.0
 11
-11.679024902765679
 21
0.6177049577455867
 31
0.0
  0
LINE
  5
539F6
  8
0
 62
     0
 10
-11.353269647507799
 20
1.0882403264514069
 30
0.0
 11
-11.353269647507799
 21
1.0882403264514069
 31
0.0
  0
LINE
  5
539F7
  8
0
 62
     0
 10
-11.425659704231769
 20
1.0158502697274341
 30
0.0
 11
-11.425659704231769
 21
1.0158502697274341
 31
0.0
  0
LINE
  5
539F8
  8
0
 62
     0
 10
-11.49804976095575
 20
0.9434602130034621
 30
0.0
 11
-11.49804976095575
 21
0.9434602130034621
 31
0.0
  0
LINE
  5
539F9
  8
0
 62
     0
 10
-11.57043981767972
 20
0.8710701562794891
 30
0.0
 11
-11.57043981767972
 21
0.8710701562794891
 31
0.0
  0
LINE
  5
539FA
  8
0
 62
     0
 10
-11.64282987440369
 20
0.7986800995555166
 30
0.0
 11
-11.64282987440369
 21
0.7986800995555166
 31
0.0
  0
LINE
  5
539FB
  8
0
 62
     0
 10
-11.71521993112767
 20
0.7262900428315438
 30
0.0
 11
-11.71521993112767
 21
0.7262900428315438
 31
0.0
  0
LINE
  5
539FC
  8
0
 62
     0
 10
-11.78760998785164
 20
0.6538999861075708
 30
0.0
 11
-11.78760998785164
 21
0.6538999861075708
 31
0.0
  0
LINE
  5
539FD
  8
0
 62
     0
 10
-11.860000044575621
 20
0.5815099293835981
 30
0.0
 11
-11.860000044575621
 21
0.5815099293835981
 31
0.0
  0
LINE
  5
539FE
  8
0
 62
     0
 10
-11.461854732593761
 20
1.124435354813395
 30
0.0
 11
-11.461854732593761
 21
1.124435354813395
 31
0.0
  0
LINE
  5
539FF
  8
0
 62
     0
 10
-11.53424478931773
 20
1.0520452980894219
 30
0.0
 11
-11.53424478931773
 21
1.0520452980894219
 31
0.0
  0
LINE
  5
53A00
  8
0
 62
     0
 10
-11.606634846041709
 20
0.9796552413654497
 30
0.0
 11
-11.606634846041709
 21
0.9796552413654497
 31
0.0
  0
LINE
  5
53A01
  8
0
 62
     0
 10
-11.679024902765679
 20
0.9072651846414768
 30
0.0
 11
-11.679024902765679
 21
0.9072651846414768
 31
0.0
  0
LINE
  5
53A02
  8
0
 62
     0
 10
-11.751414959489651
 20
0.834875127917504
 30
0.0
 11
-11.751414959489651
 21
0.834875127917504
 31
0.0
  0
LINE
  5
53A03
  8
0
 62
     0
 10
-11.82380501621363
 20
0.7624850711935313
 30
0.0
 11
-11.82380501621363
 21
0.7624850711935313
 31
0.0
  0
LINE
  5
53A04
  8
0
 62
     0
 10
-11.8961950729376
 20
0.6900950144695585
 30
0.0
 11
-11.8961950729376
 21
0.6900950144695585
 31
0.0
  0
LINE
  5
53A05
  8
0
 62
     0
 10
-11.96858512966157
 20
0.6177049577455857
 30
0.0
 11
-11.96858512966157
 21
0.6177049577455857
 31
0.0
  0
LINE
  5
53A06
  8
0
 62
     0
 10
-11.64282987440369
 20
1.0882403264514089
 30
0.0
 11
-11.64282987440369
 21
1.0882403264514089
 31
0.0
  0
LINE
  5
53A07
  8
0
 62
     0
 10
-11.71521993112767
 20
1.0158502697274361
 30
0.0
 11
-11.71521993112767
 21
1.0158502697274361
 31
0.0
  0
LINE
  5
53A08
  8
0
 62
     0
 10
-11.78760998785164
 20
0.9434602130034637
 30
0.0
 11
-11.78760998785164
 21
0.9434602130034637
 31
0.0
  0
LINE
  5
53A09
  8
0
 62
     0
 10
-11.86000004457561
 20
0.8710701562794909
 30
0.0
 11
-11.86000004457561
 21
0.8710701562794909
 31
0.0
  0
LINE
  5
53A0A
  8
0
 62
     0
 10
-11.932390101299591
 20
0.7986800995555181
 30
0.0
 11
-11.932390101299591
 21
0.7986800995555181
 31
0.0
  0
LINE
  5
53A0B
  8
0
 62
     0
 10
-12.004780158023561
 20
0.7262900428315453
 30
0.0
 11
-12.004780158023561
 21
0.7262900428315453
 31
0.0
  0
LINE
  5
53A0C
  8
0
 62
     0
 10
-12.077170214747531
 20
0.6538999861075725
 30
0.0
 11
-12.077170214747531
 21
0.6538999861075725
 31
0.0
  0
LINE
  5
53A0D
  8
0
 62
     0
 10
-12.149560271471509
 20
0.5815099293835998
 30
0.0
 11
-12.149560271471509
 21
0.5815099293835998
 31
0.0
  0
LINE
  5
53A0E
  8
0
 62
     0
 10
-11.751414959489651
 20
1.1244353548133941
 30
0.0
 11
-11.751414959489651
 21
1.1244353548133941
 31
0.0
  0
LINE
  5
53A0F
  8
0
 62
     0
 10
-11.823805016213621
 20
1.0520452980894219
 30
0.0
 11
-11.823805016213621
 21
1.0520452980894219
 31
0.0
  0
LINE
  5
53A10
  8
0
 62
     0
 10
-11.8961950729376
 20
0.9796552413654494
 30
0.0
 11
-11.8961950729376
 21
0.9796552413654494
 31
0.0
  0
LINE
  5
53A11
  8
0
 62
     0
 10
-11.96858512966157
 20
0.9072651846414767
 30
0.0
 11
-11.96858512966157
 21
0.9072651846414767
 31
0.0
  0
LINE
  5
53A12
  8
0
 62
     0
 10
-12.040975186385539
 20
0.8348751279175039
 30
0.0
 11
-12.040975186385539
 21
0.8348751279175039
 31
0.0
  0
LINE
  5
53A13
  8
0
 62
     0
 10
-12.11336524310952
 20
0.7624850711935312
 30
0.0
 11
-12.11336524310952
 21
0.7624850711935312
 31
0.0
  0
LINE
  5
53A14
  8
0
 62
     0
 10
-12.18575529983349
 20
0.6900950144695583
 30
0.0
 11
-12.18575529983349
 21
0.6900950144695583
 31
0.0
  0
LINE
  5
53A15
  8
0
 62
     0
 10
-12.258145356557471
 20
0.6177049577455854
 30
0.0
 11
-12.258145356557471
 21
0.6177049577455854
 31
0.0
  0
LINE
  5
53A16
  8
0
 62
     0
 10
-11.93239010129958
 20
1.0882403264514089
 30
0.0
 11
-11.93239010129958
 21
1.0882403264514089
 31
0.0
  0
LINE
  5
53A17
  8
0
 62
     0
 10
-12.004780158023561
 20
1.0158502697274361
 30
0.0
 11
-12.004780158023561
 21
1.0158502697274361
 31
0.0
  0
LINE
  5
53A18
  8
0
 62
     0
 10
-12.077170214747531
 20
0.9434602130034633
 30
0.0
 11
-12.077170214747531
 21
0.9434602130034633
 31
0.0
  0
LINE
  5
53A19
  8
0
 62
     0
 10
-12.149560271471501
 20
0.8710701562794906
 30
0.0
 11
-12.149560271471501
 21
0.8710701562794906
 31
0.0
  0
LINE
  5
53A1A
  8
0
 62
     0
 10
-12.221950328195479
 20
0.7986800995555178
 30
0.0
 11
-12.221950328195479
 21
0.7986800995555178
 31
0.0
  0
LINE
  5
53A1B
  8
0
 62
     0
 10
-12.294340384919449
 20
0.726290042831545
 30
0.0
 11
-12.294340384919449
 21
0.726290042831545
 31
0.0
  0
LINE
  5
53A1C
  8
0
 62
     0
 10
-12.366730441643419
 20
0.6538999861075722
 30
0.0
 11
-12.366730441643419
 21
0.6538999861075722
 31
0.0
  0
LINE
  5
53A1D
  8
0
 62
     0
 10
-12.4391204983674
 20
0.5815099293835994
 30
0.0
 11
-12.4391204983674
 21
0.5815099293835994
 31
0.0
  0
LINE
  5
53A1E
  8
0
 62
     0
 10
-12.040975186385539
 20
1.124435354813395
 30
0.0
 11
-12.040975186385539
 21
1.124435354813395
 31
0.0
  0
LINE
  5
53A1F
  8
0
 62
     0
 10
-12.11336524310952
 20
1.052045298089423
 30
0.0
 11
-12.11336524310952
 21
1.052045298089423
 31
0.0
  0
LINE
  5
53A20
  8
0
 62
     0
 10
-12.18575529983349
 20
0.9796552413654502
 30
0.0
 11
-12.18575529983349
 21
0.9796552413654502
 31
0.0
  0
LINE
  5
53A21
  8
0
 62
     0
 10
-12.258145356557471
 20
0.9072651846414775
 30
0.0
 11
-12.258145356557471
 21
0.9072651846414775
 31
0.0
  0
LINE
  5
53A22
  8
0
 62
     0
 10
-12.33053541328144
 20
0.8348751279175045
 30
0.0
 11
-12.33053541328144
 21
0.8348751279175045
 31
0.0
  0
LINE
  5
53A23
  8
0
 62
     0
 10
-12.40292547000541
 20
0.7624850711935319
 30
0.0
 11
-12.40292547000541
 21
0.7624850711935319
 31
0.0
  0
LINE
  5
53A24
  8
0
 62
     0
 10
-12.221950328195479
 20
1.0882403264514069
 30
0.0
 11
-12.221950328195479
 21
1.0882403264514069
 31
0.0
  0
LINE
  5
53A25
  8
0
 62
     0
 10
-12.294340384919449
 20
1.0158502697274341
 30
0.0
 11
-12.294340384919449
 21
1.0158502697274341
 31
0.0
  0
LINE
  5
53A26
  8
0
 62
     0
 10
-12.366730441643419
 20
0.9434602130034621
 30
0.0
 11
-12.366730441643419
 21
0.9434602130034621
 31
0.0
  0
LINE
  5
53A27
  8
0
 62
     0
 10
-12.4391204983674
 20
0.8710701562794893
 30
0.0
 11
-12.4391204983674
 21
0.8710701562794893
 31
0.0
  0
LINE
  5
53A28
  8
0
 62
     0
 10
-12.33053541328144
 20
1.124435354813395
 30
0.0
 11
-12.33053541328144
 21
1.124435354813395
 31
0.0
  0
LINE
  5
53A29
  8
0
 62
     0
 10
-12.40292547000541
 20
1.052045298089423
 30
0.0
 11
-12.40292547000541
 21
1.052045298089423
 31
0.0
  0
ENDBLK
  5
53A2B
  8
0
  0
BLOCK
  8
0
  2
*X2
 70
     1
 10
0.0
 20
0.0
 30
0.0
  3
*X2
  1

  0
LINE
  5
53A2D
  8
0
 62
     0
 10
-11.035410136677029
 20
2.7236610053955448
 30
0.0
 11
-11.035410136677029
 21
2.7236610053955448
 31
0.0
  0
LINE
  5
53A2E
  8
0
 62
     0
 10
-11.101701397413271
 20
2.6573697446593059
 30
0.0
 11
-11.101701397413271
 21
2.6573697446593059
 31
0.0
  0
LINE
  5
53A2F
  8
0
 62
     0
 10
-11.16799265814951
 20
2.5910784839230669
 30
0.0
 11
-11.16799265814951
 21
2.5910784839230669
 31
0.0
  0
LINE
  5
53A30
  8
0
 62
     0
 10
-11.00226450630891
 20
2.8893891572361392
 30
0.0
 11
-11.00226450630891
 21
2.8893891572361392
 31
0.0
  0
LINE
  5
53A31
  8
0
 62
     0
 10
-11.068555767045151
 20
2.8230978964998998
 30
0.0
 11
-11.068555767045151
 21
2.8230978964998998
 31
0.0
  0
LINE
  5
53A32
  8
0
 62
     0
 10
-11.13484702778139
 20
2.7568066357636609
 30
0.0
 11
-11.13484702778139
 21
2.7568066357636609
 31
0.0
  0
LINE
  5
53A33
  8
0
 62
     0
 10
-11.20113828851763
 20
2.690515375027422
 30
0.0
 11
-11.20113828851763
 21
2.690515375027422
 31
0.0
  0
LINE
  5
53A34
  8
0
 62
     0
 10
-11.267429549253871
 20
2.6242241142911831
 30
0.0
 11
-11.267429549253871
 21
2.6242241142911831
 31
0.0
  0
LINE
  5
53A35
  8
0
 62
     0
 10
-11.33372080999011
 20
2.557932853554945
 30
0.0
 11
-11.33372080999011
 21
2.557932853554945
 31
0.0
  0
LINE
  5
53A36
  8
0
 62
     0
 10
-11.400012070726349
 20
2.4916415928187061
 30
0.0
 11
-11.400012070726349
 21
2.4916415928187061
 31
0.0
  0
LINE
  5
53A37
  8
0
 62
     0
 10
-11.466303331462591
 20
2.4253503320824672
 30
0.0
 11
-11.466303331462591
 21
2.4253503320824672
 31
0.0
  0
LINE
  5
53A38
  8
0
 62
     0
 10
-11.035410136677029
 20
2.9888260483405009
 30
0.0
 11
-11.035410136677029
 21
2.9888260483405009
 31
0.0
  0
LINE
  5
53A39
  8
0
 62
     0
 10
-11.101701397413271
 20
2.922534787604262
 30
0.0
 11
-11.101701397413271
 21
2.922534787604262
 31
0.0
  0
LINE
  5
53A3A
  8
0
 62
     0
 10
-11.16799265814951
 20
2.8562435268680231
 30
0.0
 11
-11.16799265814951
 21
2.8562435268680231
 31
0.0
  0
LINE
  5
53A3B
  8
0
 62
     0
 10
-11.234283918885749
 20
2.7899522661317842
 30
0.0
 11
-11.234283918885749
 21
2.7899522661317842
 31
0.0
  0
LINE
  5
53A3C
  8
0
 62
     0
 10
-11.30057517962198
 20
2.7236610053955448
 30
0.0
 11
-11.30057517962198
 21
2.7236610053955448
 31
0.0
  0
LINE
  5
53A3D
  8
0
 62
     0
 10
-11.366866440358219
 20
2.6573697446593059
 30
0.0
 11
-11.366866440358219
 21
2.6573697446593059
 31
0.0
  0
LINE
  5
53A3E
  8
0
 62
     0
 10
-11.43315770109446
 20
2.5910784839230669
 30
0.0
 11
-11.43315770109446
 21
2.5910784839230669
 31
0.0
  0
LINE
  5
53A3F
  8
0
 62
     0
 10
-11.4994489618307
 20
2.524787223186828
 30
0.0
 11
-11.4994489618307
 21
2.524787223186828
 31
0.0
  0
LINE
  5
53A40
  8
0
 62
     0
 10
-11.565740222566941
 20
2.4584959624505891
 30
0.0
 11
-11.565740222566941
 21
2.4584959624505891
 31
0.0
  0
LINE
  5
53A41
  8
0
 62
     0
 10
-11.63203148330318
 20
2.3922047017143511
 30
0.0
 11
-11.63203148330318
 21
2.3922047017143511
 31
0.0
  0
LINE
  5
53A42
  8
0
 62
     0
 10
-11.69832274403942
 20
2.3259134409781121
 30
0.0
 11
-11.69832274403942
 21
2.3259134409781121
 31
0.0
  0
LINE
  5
53A43
  8
0
 62
     0
 10
-11.764614004775661
 20
2.2596221802418728
 30
0.0
 11
-11.764614004775661
 21
2.2596221802418728
 31
0.0
  0
LINE
  5
53A44
  8
0
 62
     0
 10
-11.8309052655119
 20
2.1933309195056339
 30
0.0
 11
-11.8309052655119
 21
2.1933309195056339
 31
0.0
  0
LINE
  5
53A45
  8
0
 62
     0
 10
-11.002264506308901
 20
3.1545542001810971
 30
0.0
 11
-11.002264506308901
 21
3.1545542001810971
 31
0.0
  0
LINE
  5
53A46
  8
0
 62
     0
 10
-11.06855576704514
 20
3.0882629394448582
 30
0.0
 11
-11.06855576704514
 21
3.0882629394448582
 31
0.0
  0
LINE
  5
53A47
  8
0
 62
     0
 10
-11.13484702778138
 20
3.0219716787086188
 30
0.0
 11
-11.13484702778138
 21
3.0219716787086188
 31
0.0
  0
LINE
  5
53A48
  8
0
 62
     0
 10
-11.201138288517621
 20
2.9556804179723799
 30
0.0
 11
-11.201138288517621
 21
2.9556804179723799
 31
0.0
  0
LINE
  5
53A49
  8
0
 62
     0
 10
-11.26742954925386
 20
2.889389157236141
 30
0.0
 11
-11.26742954925386
 21
2.889389157236141
 31
0.0
  0
LINE
  5
53A4A
  8
0
 62
     0
 10
-11.333720809990099
 20
2.8230978964999021
 30
0.0
 11
-11.333720809990099
 21
2.8230978964999021
 31
0.0
  0
LINE
  5
53A4B
  8
0
 62
     0
 10
-11.400012070726341
 20
2.7568066357636631
 30
0.0
 11
-11.400012070726341
 21
2.7568066357636631
 31
0.0
  0
LINE
  5
53A4C
  8
0
 62
     0
 10
-11.46630333146258
 20
2.6905153750274242
 30
0.0
 11
-11.46630333146258
 21
2.6905153750274242
 31
0.0
  0
LINE
  5
53A4D
  8
0
 62
     0
 10
-11.532594592198819
 20
2.6242241142911849
 30
0.0
 11
-11.532594592198819
 21
2.6242241142911849
 31
0.0
  0
LINE
  5
53A4E
  8
0
 62
     0
 10
-11.59888585293506
 20
2.5579328535549459
 30
0.0
 11
-11.59888585293506
 21
2.5579328535549459
 31
0.0
  0
LINE
  5
53A4F
  8
0
 62
     0
 10
-11.6651771136713
 20
2.491641592818707
 30
0.0
 11
-11.6651771136713
 21
2.491641592818707
 31
0.0
  0
LINE
  5
53A50
  8
0
 62
     0
 10
-11.731468374407539
 20
2.4253503320824681
 30
0.0
 11
-11.731468374407539
 21
2.4253503320824681
 31
0.0
  0
LINE
  5
53A51
  8
0
 62
     0
 10
-11.79775963514378
 20
2.3590590713462301
 30
0.0
 11
-11.79775963514378
 21
2.3590590713462301
 31
0.0
  0
LINE
  5
53A52
  8
0
 62
     0
 10
-11.86405089588002
 20
2.2927678106099911
 30
0.0
 11
-11.86405089588002
 21
2.2927678106099911
 31
0.0
  0
LINE
  5
53A53
  8
0
 62
     0
 10
-11.930342156616261
 20
2.2264765498737522
 30
0.0
 11
-11.930342156616261
 21
2.2264765498737522
 31
0.0
  0
LINE
  5
53A54
  8
0
 62
     0
 10
-11.9966334173525
 20
2.1601852891375128
 30
0.0
 11
-11.9966334173525
 21
2.1601852891375128
 31
0.0
  0
LINE
  5
53A55
  8
0
 62
     0
 10
-12.06292467808874
 20
2.0938940284012739
 30
0.0
 11
-12.06292467808874
 21
2.0938940284012739
 31
0.0
  0
LINE
  5
53A56
  8
0
 62
     0
 10
-12.12921593882497
 20
2.027602767665035
 30
0.0
 11
-12.12921593882497
 21
2.027602767665035
 31
0.0
  0
LINE
  5
53A57
  8
0
 62
     0
 10
-11.035410136677021
 20
3.253991091285457
 30
0.0
 11
-11.035410136677021
 21
3.253991091285457
 31
0.0
  0
LINE
  5
53A58
  8
0
 62
     0
 10
-11.10170139741326
 20
3.1876998305492181
 30
0.0
 11
-11.10170139741326
 21
3.1876998305492181
 31
0.0
  0
LINE
  5
53A59
  8
0
 62
     0
 10
-11.167992658149499
 20
3.1214085698129792
 30
0.0
 11
-11.167992658149499
 21
3.1214085698129792
 31
0.0
  0
LINE
  5
53A5A
  8
0
 62
     0
 10
-11.23428391888574
 20
3.0551173090767398
 30
0.0
 11
-11.23428391888574
 21
3.0551173090767398
 31
0.0
  0
LINE
  5
53A5B
  8
0
 62
     0
 10
-11.30057517962198
 20
2.9888260483405009
 30
0.0
 11
-11.30057517962198
 21
2.9888260483405009
 31
0.0
  0
LINE
  5
53A5C
  8
0
 62
     0
 10
-11.366866440358219
 20
2.922534787604262
 30
0.0
 11
-11.366866440358219
 21
2.922534787604262
 31
0.0
  0
LINE
  5
53A5D
  8
0
 62
     0
 10
-11.43315770109446
 20
2.8562435268680231
 30
0.0
 11
-11.43315770109446
 21
2.8562435268680231
 31
0.0
  0
LINE
  5
53A5E
  8
0
 62
     0
 10
-11.4994489618307
 20
2.7899522661317842
 30
0.0
 11
-11.4994489618307
 21
2.7899522661317842
 31
0.0
  0
LINE
  5
53A5F
  8
0
 62
     0
 10
-11.565740222566941
 20
2.7236610053955448
 30
0.0
 11
-11.565740222566941
 21
2.7236610053955448
 31
0.0
  0
LINE
  5
53A60
  8
0
 62
     0
 10
-11.63203148330318
 20
2.6573697446593059
 30
0.0
 11
-11.63203148330318
 21
2.6573697446593059
 31
0.0
  0
LINE
  5
53A61
  8
0
 62
     0
 10
-11.698322744039411
 20
2.5910784839230669
 30
0.0
 11
-11.698322744039411
 21
2.5910784839230669
 31
0.0
  0
LINE
  5
53A62
  8
0
 62
     0
 10
-11.76461400477565
 20
2.524787223186828
 30
0.0
 11
-11.76461400477565
 21
2.524787223186828
 31
0.0
  0
LINE
  5
53A63
  8
0
 62
     0
 10
-11.830905265511889
 20
2.4584959624505891
 30
0.0
 11
-11.830905265511889
 21
2.4584959624505891
 31
0.0
  0
LINE
  5
53A64
  8
0
 62
     0
 10
-11.897196526248131
 20
2.3922047017143511
 30
0.0
 11
-11.897196526248131
 21
2.3922047017143511
 31
0.0
  0
LINE
  5
53A65
  8
0
 62
     0
 10
-11.96348778698437
 20
2.3259134409781121
 30
0.0
 11
-11.96348778698437
 21
2.3259134409781121
 31
0.0
  0
LINE
  5
53A66
  8
0
 62
     0
 10
-12.029779047720609
 20
2.2596221802418728
 30
0.0
 11
-12.029779047720609
 21
2.2596221802418728
 31
0.0
  0
LINE
  5
53A67
  8
0
 62
     0
 10
-12.09607030845685
 20
2.1933309195056339
 30
0.0
 11
-12.09607030845685
 21
2.1933309195056339
 31
0.0
  0
LINE
  5
53A68
  8
0
 62
     0
 10
-12.16236156919309
 20
2.1270396587693949
 30
0.0
 11
-12.16236156919309
 21
2.1270396587693949
 31
0.0
  0
LINE
  5
53A69
  8
0
 62
     0
 10
-12.228652829929329
 20
2.060748398033156
 30
0.0
 11
-12.228652829929329
 21
2.060748398033156
 31
0.0
  0
LINE
  5
53A6A
  8
0
 62
     0
 10
-12.29494409066557
 20
1.9944571372969171
 30
0.0
 11
-12.29494409066557
 21
1.9944571372969171
 31
0.0
  0
LINE
  5
53A6B
  8
0
 62
     0
 10
-12.36123535140181
 20
1.9281658765606779
 30
0.0
 11
-12.36123535140181
 21
1.9281658765606779
 31
0.0
  0
LINE
  5
53A6C
  8
0
 62
     0
 10
-12.427526612138051
 20
1.861874615824439
 30
0.0
 11
-12.427526612138051
 21
1.861874615824439
 31
0.0
  0
LINE
  5
53A6D
  8
0
 62
     0
 10
-11.002264506308901
 20
3.419719243126055
 30
0.0
 11
-11.002264506308901
 21
3.419719243126055
 31
0.0
  0
LINE
  5
53A6E
  8
0
 62
     0
 10
-11.06855576704513
 20
3.3534279823898161
 30
0.0
 11
-11.06855576704513
 21
3.3534279823898161
 31
0.0
  0
LINE
  5
53A6F
  8
0
 62
     0
 10
-11.134847027781371
 20
3.2871367216535772
 30
0.0
 11
-11.134847027781371
 21
3.2871367216535772
 31
0.0
  0
LINE
  5
53A70
  8
0
 62
     0
 10
-11.20113828851761
 20
3.2208454609173378
 30
0.0
 11
-11.20113828851761
 21
3.2208454609173378
 31
0.0
  0
LINE
  5
53A71
  8
0
 62
     0
 10
-11.267429549253849
 20
3.1545542001810989
 30
0.0
 11
-11.267429549253849
 21
3.1545542001810989
 31
0.0
  0
LINE
  5
53A72
  8
0
 62
     0
 10
-11.333720809990091
 20
3.08826293944486
 30
0.0
 11
-11.333720809990091
 21
3.08826293944486
 31
0.0
  0
LINE
  5
53A73
  8
0
 62
     0
 10
-11.40001207072633
 20
3.021971678708621
 30
0.0
 11
-11.40001207072633
 21
3.021971678708621
 31
0.0
  0
LINE
  5
53A74
  8
0
 62
     0
 10
-11.466303331462569
 20
2.955680417972383
 30
0.0
 11
-11.466303331462569
 21
2.955680417972383
 31
0.0
  0
LINE
  5
53A75
  8
0
 62
     0
 10
-11.53259459219881
 20
2.8893891572361441
 30
0.0
 11
-11.53259459219881
 21
2.8893891572361441
 31
0.0
  0
LINE
  5
53A76
  8
0
 62
     0
 10
-11.59888585293505
 20
2.8230978964999052
 30
0.0
 11
-11.59888585293505
 21
2.8230978964999052
 31
0.0
  0
LINE
  5
53A77
  8
0
 62
     0
 10
-11.665177113671289
 20
2.7568066357636658
 30
0.0
 11
-11.665177113671289
 21
2.7568066357636658
 31
0.0
  0
LINE
  5
53A78
  8
0
 62
     0
 10
-11.73146837440753
 20
2.6905153750274269
 30
0.0
 11
-11.73146837440753
 21
2.6905153750274269
 31
0.0
  0
LINE
  5
53A79
  8
0
 62
     0
 10
-11.79775963514377
 20
2.624224114291188
 30
0.0
 11
-11.79775963514377
 21
2.624224114291188
 31
0.0
  0
LINE
  5
53A7A
  8
0
 62
     0
 10
-11.864050895880011
 20
2.557932853554949
 30
0.0
 11
-11.864050895880011
 21
2.557932853554949
 31
0.0
  0
LINE
  5
53A7B
  8
0
 62
     0
 10
-11.93034215661625
 20
2.4916415928187101
 30
0.0
 11
-11.93034215661625
 21
2.4916415928187101
 31
0.0
  0
LINE
  5
53A7C
  8
0
 62
     0
 10
-11.99663341735249
 20
2.4253503320824712
 30
0.0
 11
-11.99663341735249
 21
2.4253503320824712
 31
0.0
  0
LINE
  5
53A7D
  8
0
 62
     0
 10
-12.062924678088731
 20
2.3590590713462318
 30
0.0
 11
-12.062924678088731
 21
2.3590590713462318
 31
0.0
  0
LINE
  5
53A7E
  8
0
 62
     0
 10
-12.129215938824959
 20
2.2927678106099929
 30
0.0
 11
-12.129215938824959
 21
2.2927678106099929
 31
0.0
  0
LINE
  5
53A7F
  8
0
 62
     0
 10
-12.195507199561201
 20
2.226476549873754
 30
0.0
 11
-12.195507199561201
 21
2.226476549873754
 31
0.0
  0
LINE
  5
53A80
  8
0
 62
     0
 10
-12.26179846029744
 20
2.1601852891375151
 30
0.0
 11
-12.26179846029744
 21
2.1601852891375151
 31
0.0
  0
LINE
  5
53A81
  8
0
 62
     0
 10
-12.328089721033679
 20
2.093894028401277
 30
0.0
 11
-12.328089721033679
 21
2.093894028401277
 31
0.0
  0
LINE
  5
53A82
  8
0
 62
     0
 10
-12.39438098176992
 20
2.0276027676650381
 30
0.0
 11
-12.39438098176992
 21
2.0276027676650381
 31
0.0
  0
LINE
  5
53A83
  8
0
 62
     0
 10
-12.46067224250616
 20
1.961311506928799
 30
0.0
 11
-12.46067224250616
 21
1.961311506928799
 31
0.0
  0
LINE
  5
53A84
  8
0
 62
     0
 10
-12.526963503242399
 20
1.89502024619256
 30
0.0
 11
-12.526963503242399
 21
1.89502024619256
 31
0.0
  0
LINE
  5
53A85
  8
0
 62
     0
 10
-12.59325476397864
 20
1.8287289854563209
 30
0.0
 11
-12.59325476397864
 21
1.8287289854563209
 31
0.0
  0
LINE
  5
53A86
  8
0
 62
     0
 10
-12.65954602471488
 20
1.762437724720082
 30
0.0
 11
-12.65954602471488
 21
1.762437724720082
 31
0.0
  0
LINE
  5
53A87
  8
0
 62
     0
 10
-12.725837285451121
 20
1.6961464639838431
 30
0.0
 11
-12.725837285451121
 21
1.6961464639838431
 31
0.0
  0
LINE
  5
53A88
  8
0
 62
     0
 10
-11.035410136677021
 20
3.5191561342304101
 30
0.0
 11
-11.035410136677021
 21
3.5191561342304101
 31
0.0
  0
LINE
  5
53A89
  8
0
 62
     0
 10
-11.10170139741326
 20
3.452864873494172
 30
0.0
 11
-11.10170139741326
 21
3.452864873494172
 31
0.0
  0
LINE
  5
53A8A
  8
0
 62
     0
 10
-11.167992658149499
 20
3.3865736127579331
 30
0.0
 11
-11.167992658149499
 21
3.3865736127579331
 31
0.0
  0
LINE
  5
53A8B
  8
0
 62
     0
 10
-11.23428391888574
 20
3.3202823520216942
 30
0.0
 11
-11.23428391888574
 21
3.3202823520216942
 31
0.0
  0
LINE
  5
53A8C
  8
0
 62
     0
 10
-11.30057517962198
 20
3.2539910912854548
 30
0.0
 11
-11.30057517962198
 21
3.2539910912854548
 31
0.0
  0
LINE
  5
53A8D
  8
0
 62
     0
 10
-11.366866440358219
 20
3.1876998305492159
 30
0.0
 11
-11.366866440358219
 21
3.1876998305492159
 31
0.0
  0
LINE
  5
53A8E
  8
0
 62
     0
 10
-11.43315770109445
 20
3.121408569812977
 30
0.0
 11
-11.43315770109445
 21
3.121408569812977
 31
0.0
  0
LINE
  5
53A8F
  8
0
 62
     0
 10
-11.499448961830691
 20
3.0551173090767381
 30
0.0
 11
-11.499448961830691
 21
3.0551173090767381
 31
0.0
  0
LINE
  5
53A90
  8
0
 62
     0
 10
-11.56574022256693
 20
2.9888260483404991
 30
0.0
 11
-11.56574022256693
 21
2.9888260483404991
 31
0.0
  0
LINE
  5
53A91
  8
0
 62
     0
 10
-11.632031483303169
 20
2.9225347876042602
 30
0.0
 11
-11.632031483303169
 21
2.9225347876042602
 31
0.0
  0
LINE
  5
53A92
  8
0
 62
     0
 10
-11.698322744039411
 20
2.8562435268680209
 30
0.0
 11
-11.698322744039411
 21
2.8562435268680209
 31
0.0
  0
LINE
  5
53A93
  8
0
 62
     0
 10
-11.76461400477565
 20
2.7899522661317819
 30
0.0
 11
-11.76461400477565
 21
2.7899522661317819
 31
0.0
  0
LINE
  5
53A94
  8
0
 62
     0
 10
-11.830905265511889
 20
2.723661005395543
 30
0.0
 11
-11.830905265511889
 21
2.723661005395543
 31
0.0
  0
LINE
  5
53A95
  8
0
 62
     0
 10
-11.897196526248131
 20
2.6573697446593041
 30
0.0
 11
-11.897196526248131
 21
2.6573697446593041
 31
0.0
  0
LINE
  5
53A96
  8
0
 62
     0
 10
-11.96348778698437
 20
2.5910784839230661
 30
0.0
 11
-11.96348778698437
 21
2.5910784839230661
 31
0.0
  0
LINE
  5
53A97
  8
0
 62
     0
 10
-12.029779047720609
 20
2.5247872231868271
 30
0.0
 11
-12.029779047720609
 21
2.5247872231868271
 31
0.0
  0
LINE
  5
53A98
  8
0
 62
     0
 10
-12.09607030845685
 20
2.4584959624505882
 30
0.0
 11
-12.09607030845685
 21
2.4584959624505882
 31
0.0
  0
LINE
  5
53A99
  8
0
 62
     0
 10
-12.16236156919309
 20
2.3922047017143488
 30
0.0
 11
-12.16236156919309
 21
2.3922047017143488
 31
0.0
  0
LINE
  5
53A9A
  8
0
 62
     0
 10
-12.228652829929329
 20
2.3259134409781099
 30
0.0
 11
-12.228652829929329
 21
2.3259134409781099
 31
0.0
  0
LINE
  5
53A9B
  8
0
 62
     0
 10
-12.29494409066557
 20
2.259622180241871
 30
0.0
 11
-12.29494409066557
 21
2.259622180241871
 31
0.0
  0
LINE
  5
53A9C
  8
0
 62
     0
 10
-12.36123535140181
 20
2.1933309195056321
 30
0.0
 11
-12.36123535140181
 21
2.1933309195056321
 31
0.0
  0
LINE
  5
53A9D
  8
0
 62
     0
 10
-12.427526612138051
 20
2.1270396587693932
 30
0.0
 11
-12.427526612138051
 21
2.1270396587693932
 31
0.0
  0
LINE
  5
53A9E
  8
0
 62
     0
 10
-12.493817872874279
 20
2.0607483980331538
 30
0.0
 11
-12.493817872874279
 21
2.0607483980331538
 31
0.0
  0
LINE
  5
53A9F
  8
0
 62
     0
 10
-12.560109133610521
 20
1.9944571372969151
 30
0.0
 11
-12.560109133610521
 21
1.9944571372969151
 31
0.0
  0
LINE
  5
53AA0
  8
0
 62
     0
 10
-12.62640039434676
 20
1.9281658765606771
 30
0.0
 11
-12.62640039434676
 21
1.9281658765606771
 31
0.0
  0
LINE
  5
53AA1
  8
0
 62
     0
 10
-12.692691655082999
 20
1.8618746158244379
 30
0.0
 11
-12.692691655082999
 21
1.8618746158244379
 31
0.0
  0
LINE
  5
53AA2
  8
0
 62
     0
 10
-12.75898291581924
 20
1.795583355088199
 30
0.0
 11
-12.75898291581924
 21
1.795583355088199
 31
0.0
  0
LINE
  5
53AA3
  8
0
 62
     0
 10
-12.82527417655548
 20
1.7292920943519601
 30
0.0
 11
-12.82527417655548
 21
1.7292920943519601
 31
0.0
  0
LINE
  5
53AA4
  8
0
 62
     0
 10
-12.891565437291719
 20
1.6630008336157209
 30
0.0
 11
-12.891565437291719
 21
1.6630008336157209
 31
0.0
  0
LINE
  5
53AA5
  8
0
 62
     0
 10
-11.002264506308901
 20
3.6848842860710098
 30
0.0
 11
-11.002264506308901
 21
3.6848842860710098
 31
0.0
  0
LINE
  5
53AA6
  8
0
 62
     0
 10
-11.06855576704514
 20
3.6185930253347709
 30
0.0
 11
-11.06855576704514
 21
3.6185930253347709
 31
0.0
  0
LINE
  5
53AA7
  8
0
 62
     0
 10
-11.13484702778138
 20
3.552301764598532
 30
0.0
 11
-11.13484702778138
 21
3.552301764598532
 31
0.0
  0
LINE
  5
53AA8
  8
0
 62
     0
 10
-11.201138288517621
 20
3.4860105038622931
 30
0.0
 11
-11.201138288517621
 21
3.4860105038622931
 31
0.0
  0
LINE
  5
53AA9
  8
0
 62
     0
 10
-11.26742954925386
 20
3.419719243126055
 30
0.0
 11
-11.26742954925386
 21
3.419719243126055
 31
0.0
  0
LINE
  5
53AAA
  8
0
 62
     0
 10
-11.333720809990091
 20
3.3534279823898161
 30
0.0
 11
-11.333720809990091
 21
3.3534279823898161
 31
0.0
  0
LINE
  5
53AAB
  8
0
 62
     0
 10
-11.40001207072633
 20
3.2871367216535772
 30
0.0
 11
-11.40001207072633
 21
3.2871367216535772
 31
0.0
  0
LINE
  5
53AAC
  8
0
 62
     0
 10
-11.466303331462569
 20
3.2208454609173378
 30
0.0
 11
-11.466303331462569
 21
3.2208454609173378
 31
0.0
  0
LINE
  5
53AAD
  8
0
 62
     0
 10
-11.53259459219881
 20
3.1545542001810989
 30
0.0
 11
-11.53259459219881
 21
3.1545542001810989
 31
0.0
  0
LINE
  5
53AAE
  8
0
 62
     0
 10
-11.59888585293505
 20
3.08826293944486
 30
0.0
 11
-11.59888585293505
 21
3.08826293944486
 31
0.0
  0
LINE
  5
53AAF
  8
0
 62
     0
 10
-11.665177113671289
 20
3.021971678708621
 30
0.0
 11
-11.665177113671289
 21
3.021971678708621
 31
0.0
  0
LINE
  5
53AB0
  8
0
 62
     0
 10
-11.73146837440753
 20
2.9556804179723821
 30
0.0
 11
-11.73146837440753
 21
2.9556804179723821
 31
0.0
  0
LINE
  5
53AB1
  8
0
 62
     0
 10
-11.79775963514377
 20
2.8893891572361432
 30
0.0
 11
-11.79775963514377
 21
2.8893891572361432
 31
0.0
  0
LINE
  5
53AB2
  8
0
 62
     0
 10
-11.864050895880011
 20
2.8230978964999038
 30
0.0
 11
-11.864050895880011
 21
2.8230978964999038
 31
0.0
  0
LINE
  5
53AB3
  8
0
 62
     0
 10
-11.93034215661625
 20
2.7568066357636649
 30
0.0
 11
-11.93034215661625
 21
2.7568066357636649
 31
0.0
  0
LINE
  5
53AB4
  8
0
 62
     0
 10
-11.99663341735249
 20
2.690515375027426
 30
0.0
 11
-11.99663341735249
 21
2.690515375027426
 31
0.0
  0
LINE
  5
53AB5
  8
0
 62
     0
 10
-12.062924678088731
 20
2.6242241142911871
 30
0.0
 11
-12.062924678088731
 21
2.6242241142911871
 31
0.0
  0
LINE
  5
53AB6
  8
0
 62
     0
 10
-12.12921593882497
 20
2.557932853554949
 30
0.0
 11
-12.12921593882497
 21
2.557932853554949
 31
0.0
  0
LINE
  5
53AB7
  8
0
 62
     0
 10
-12.195507199561209
 20
2.4916415928187101
 30
0.0
 11
-12.195507199561209
 21
2.4916415928187101
 31
0.0
  0
LINE
  5
53AB8
  8
0
 62
     0
 10
-12.261798460297451
 20
2.4253503320824712
 30
0.0
 11
-12.261798460297451
 21
2.4253503320824712
 31
0.0
  0
LINE
  5
53AB9
  8
0
 62
     0
 10
-12.32808972103369
 20
2.3590590713462318
 30
0.0
 11
-12.32808972103369
 21
2.3590590713462318
 31
0.0
  0
LINE
  5
53ABA
  8
0
 62
     0
 10
-12.39438098176992
 20
2.2927678106099929
 30
0.0
 11
-12.39438098176992
 21
2.2927678106099929
 31
0.0
  0
LINE
  5
53ABB
  8
0
 62
     0
 10
-12.46067224250616
 20
2.226476549873754
 30
0.0
 11
-12.46067224250616
 21
2.226476549873754
 31
0.0
  0
LINE
  5
53ABC
  8
0
 62
     0
 10
-12.526963503242399
 20
2.1601852891375151
 30
0.0
 11
-12.526963503242399
 21
2.1601852891375151
 31
0.0
  0
LINE
  5
53ABD
  8
0
 62
     0
 10
-12.59325476397864
 20
2.0938940284012761
 30
0.0
 11
-12.59325476397864
 21
2.0938940284012761
 31
0.0
  0
LINE
  5
53ABE
  8
0
 62
     0
 10
-12.65954602471488
 20
2.0276027676650372
 30
0.0
 11
-12.65954602471488
 21
2.0276027676650372
 31
0.0
  0
LINE
  5
53ABF
  8
0
 62
     0
 10
-12.725837285451121
 20
1.9613115069287981
 30
0.0
 11
-12.725837285451121
 21
1.9613115069287981
 31
0.0
  0
LINE
  5
53AC0
  8
0
 62
     0
 10
-12.79212854618736
 20
1.8950202461925589
 30
0.0
 11
-12.79212854618736
 21
1.8950202461925589
 31
0.0
  0
LINE
  5
53AC1
  8
0
 62
     0
 10
-12.8584198069236
 20
1.82872898545632
 30
0.0
 11
-12.8584198069236
 21
1.82872898545632
 31
0.0
  0
LINE
  5
53AC2
  8
0
 62
     0
 10
-11.035410136677021
 20
3.7843211771753702
 30
0.0
 11
-11.035410136677021
 21
3.7843211771753702
 31
0.0
  0
LINE
  5
53AC3
  8
0
 62
     0
 10
-11.10170139741326
 20
3.7180299164391308
 30
0.0
 11
-11.10170139741326
 21
3.7180299164391308
 31
0.0
  0
LINE
  5
53AC4
  8
0
 62
     0
 10
-11.16799265814949
 20
3.6517386557028919
 30
0.0
 11
-11.16799265814949
 21
3.6517386557028919
 31
0.0
  0
LINE
  5
53AC5
  8
0
 62
     0
 10
-11.23428391888573
 20
3.585447394966653
 30
0.0
 11
-11.23428391888573
 21
3.585447394966653
 31
0.0
  0
LINE
  5
53AC6
  8
0
 62
     0
 10
-11.300575179621969
 20
3.5191561342304141
 30
0.0
 11
-11.300575179621969
 21
3.5191561342304141
 31
0.0
  0
LINE
  5
53AC7
  8
0
 62
     0
 10
-11.36686644035821
 20
3.4528648734941751
 30
0.0
 11
-11.36686644035821
 21
3.4528648734941751
 31
0.0
  0
LINE
  5
53AC8
  8
0
 62
     0
 10
-11.43315770109445
 20
3.3865736127579358
 30
0.0
 11
-11.43315770109445
 21
3.3865736127579358
 31
0.0
  0
LINE
  5
53AC9
  8
0
 62
     0
 10
-11.499448961830691
 20
3.3202823520216969
 30
0.0
 11
-11.499448961830691
 21
3.3202823520216969
 31
0.0
  0
LINE
  5
53ACA
  8
0
 62
     0
 10
-11.56574022256693
 20
3.2539910912854579
 30
0.0
 11
-11.56574022256693
 21
3.2539910912854579
 31
0.0
  0
LINE
  5
53ACB
  8
0
 62
     0
 10
-11.632031483303169
 20
3.187699830549219
 30
0.0
 11
-11.632031483303169
 21
3.187699830549219
 31
0.0
  0
LINE
  5
53ACC
  8
0
 62
     0
 10
-11.698322744039411
 20
3.1214085698129801
 30
0.0
 11
-11.698322744039411
 21
3.1214085698129801
 31
0.0
  0
LINE
  5
53ACD
  8
0
 62
     0
 10
-11.76461400477565
 20
3.0551173090767421
 30
0.0
 11
-11.76461400477565
 21
3.0551173090767421
 31
0.0
  0
LINE
  5
53ACE
  8
0
 62
     0
 10
-11.830905265511889
 20
2.9888260483405031
 30
0.0
 11
-11.830905265511889
 21
2.9888260483405031
 31
0.0
  0
LINE
  5
53ACF
  8
0
 62
     0
 10
-11.897196526248131
 20
2.9225347876042642
 30
0.0
 11
-11.897196526248131
 21
2.9225347876042642
 31
0.0
  0
LINE
  5
53AD0
  8
0
 62
     0
 10
-11.96348778698437
 20
2.8562435268680249
 30
0.0
 11
-11.96348778698437
 21
2.8562435268680249
 31
0.0
  0
LINE
  5
53AD1
  8
0
 62
     0
 10
-12.029779047720609
 20
2.7899522661317859
 30
0.0
 11
-12.029779047720609
 21
2.7899522661317859
 31
0.0
  0
LINE
  5
53AD2
  8
0
 62
     0
 10
-12.09607030845685
 20
2.723661005395547
 30
0.0
 11
-12.09607030845685
 21
2.723661005395547
 31
0.0
  0
LINE
  5
53AD3
  8
0
 62
     0
 10
-12.16236156919309
 20
2.6573697446593081
 30
0.0
 11
-12.16236156919309
 21
2.6573697446593081
 31
0.0
  0
LINE
  5
53AD4
  8
0
 62
     0
 10
-12.22865282992932
 20
2.5910784839230692
 30
0.0
 11
-12.22865282992932
 21
2.5910784839230692
 31
0.0
  0
LINE
  5
53AD5
  8
0
 62
     0
 10
-12.29494409066556
 20
2.5247872231868298
 30
0.0
 11
-12.29494409066556
 21
2.5247872231868298
 31
0.0
  0
LINE
  5
53AD6
  8
0
 62
     0
 10
-12.361235351401801
 20
2.4584959624505909
 30
0.0
 11
-12.361235351401801
 21
2.4584959624505909
 31
0.0
  0
LINE
  5
53AD7
  8
0
 62
     0
 10
-12.42752661213804
 20
2.392204701714352
 30
0.0
 11
-12.42752661213804
 21
2.392204701714352
 31
0.0
  0
LINE
  5
53AD8
  8
0
 62
     0
 10
-12.493817872874279
 20
2.325913440978113
 30
0.0
 11
-12.493817872874279
 21
2.325913440978113
 31
0.0
  0
LINE
  5
53AD9
  8
0
 62
     0
 10
-12.560109133610521
 20
2.259622180241875
 30
0.0
 11
-12.560109133610521
 21
2.259622180241875
 31
0.0
  0
LINE
  5
53ADA
  8
0
 62
     0
 10
-12.62640039434676
 20
2.1933309195056361
 30
0.0
 11
-12.62640039434676
 21
2.1933309195056361
 31
0.0
  0
LINE
  5
53ADB
  8
0
 62
     0
 10
-12.692691655082999
 20
2.1270396587693972
 30
0.0
 11
-12.692691655082999
 21
2.1270396587693972
 31
0.0
  0
LINE
  5
53ADC
  8
0
 62
     0
 10
-12.75898291581924
 20
2.0607483980331578
 30
0.0
 11
-12.75898291581924
 21
2.0607483980331578
 31
0.0
  0
LINE
  5
53ADD
  8
0
 62
     0
 10
-12.82527417655548
 20
1.9944571372969191
 30
0.0
 11
-12.82527417655548
 21
1.9944571372969191
 31
0.0
  0
LINE
  5
53ADE
  8
0
 62
     0
 10
-12.891565437291719
 20
1.9281658765606799
 30
0.0
 11
-12.891565437291719
 21
1.9281658765606799
 31
0.0
  0
LINE
  5
53ADF
  8
0
 62
     0
 10
-11.002264506308901
 20
3.9500493290159628
 30
0.0
 11
-11.002264506308901
 21
3.9500493290159628
 31
0.0
  0
LINE
  5
53AE0
  8
0
 62
     0
 10
-11.06855576704514
 20
3.8837580682797239
 30
0.0
 11
-11.06855576704514
 21
3.8837580682797239
 31
0.0
  0
LINE
  5
53AE1
  8
0
 62
     0
 10
-11.13484702778138
 20
3.817466807543485
 30
0.0
 11
-11.13484702778138
 21
3.817466807543485
 31
0.0
  0
LINE
  5
53AE2
  8
0
 62
     0
 10
-11.201138288517621
 20
3.7511755468072461
 30
0.0
 11
-11.201138288517621
 21
3.7511755468072461
 31
0.0
  0
LINE
  5
53AE3
  8
0
 62
     0
 10
-11.26742954925386
 20
3.6848842860710072
 30
0.0
 11
-11.26742954925386
 21
3.6848842860710072
 31
0.0
  0
LINE
  5
53AE4
  8
0
 62
     0
 10
-11.333720809990091
 20
3.6185930253347678
 30
0.0
 11
-11.333720809990091
 21
3.6185930253347678
 31
0.0
  0
LINE
  5
53AE5
  8
0
 62
     0
 10
-11.40001207072633
 20
3.5523017645985289
 30
0.0
 11
-11.40001207072633
 21
3.5523017645985289
 31
0.0
  0
LINE
  5
53AE6
  8
0
 62
     0
 10
-11.466303331462569
 20
3.4860105038622899
 30
0.0
 11
-11.466303331462569
 21
3.4860105038622899
 31
0.0
  0
LINE
  5
53AE7
  8
0
 62
     0
 10
-11.53259459219881
 20
3.419719243126051
 30
0.0
 11
-11.53259459219881
 21
3.419719243126051
 31
0.0
  0
LINE
  5
53AE8
  8
0
 62
     0
 10
-11.59888585293505
 20
3.3534279823898121
 30
0.0
 11
-11.59888585293505
 21
3.3534279823898121
 31
0.0
  0
LINE
  5
53AE9
  8
0
 62
     0
 10
-11.665177113671289
 20
3.2871367216535741
 30
0.0
 11
-11.665177113671289
 21
3.2871367216535741
 31
0.0
  0
LINE
  5
53AEA
  8
0
 62
     0
 10
-11.73146837440753
 20
3.2208454609173351
 30
0.0
 11
-11.73146837440753
 21
3.2208454609173351
 31
0.0
  0
LINE
  5
53AEB
  8
0
 62
     0
 10
-11.79775963514377
 20
3.1545542001810958
 30
0.0
 11
-11.79775963514377
 21
3.1545542001810958
 31
0.0
  0
LINE
  5
53AEC
  8
0
 62
     0
 10
-11.864050895880011
 20
3.0882629394448569
 30
0.0
 11
-11.864050895880011
 21
3.0882629394448569
 31
0.0
  0
LINE
  5
53AED
  8
0
 62
     0
 10
-11.93034215661625
 20
3.0219716787086179
 30
0.0
 11
-11.93034215661625
 21
3.0219716787086179
 31
0.0
  0
LINE
  5
53AEE
  8
0
 62
     0
 10
-11.99663341735249
 20
2.955680417972379
 30
0.0
 11
-11.99663341735249
 21
2.955680417972379
 31
0.0
  0
LINE
  5
53AEF
  8
0
 62
     0
 10
-12.062924678088731
 20
2.8893891572361401
 30
0.0
 11
-12.062924678088731
 21
2.8893891572361401
 31
0.0
  0
LINE
  5
53AF0
  8
0
 62
     0
 10
-12.12921593882497
 20
2.8230978964999012
 30
0.0
 11
-12.12921593882497
 21
2.8230978964999012
 31
0.0
  0
LINE
  5
53AF1
  8
0
 62
     0
 10
-12.195507199561209
 20
2.7568066357636618
 30
0.0
 11
-12.195507199561209
 21
2.7568066357636618
 31
0.0
  0
LINE
  5
53AF2
  8
0
 62
     0
 10
-12.261798460297451
 20
2.6905153750274229
 30
0.0
 11
-12.261798460297451
 21
2.6905153750274229
 31
0.0
  0
LINE
  5
53AF3
  8
0
 62
     0
 10
-12.32808972103369
 20
2.624224114291184
 30
0.0
 11
-12.32808972103369
 21
2.624224114291184
 31
0.0
  0
LINE
  5
53AF4
  8
0
 62
     0
 10
-12.394380981769929
 20
2.557932853554945
 30
0.0
 11
-12.394380981769929
 21
2.557932853554945
 31
0.0
  0
LINE
  5
53AF5
  8
0
 62
     0
 10
-12.46067224250617
 20
2.491641592818707
 30
0.0
 11
-12.46067224250617
 21
2.491641592818707
 31
0.0
  0
LINE
  5
53AF6
  8
0
 62
     0
 10
-12.526963503242399
 20
2.4253503320824681
 30
0.0
 11
-12.526963503242399
 21
2.4253503320824681
 31
0.0
  0
LINE
  5
53AF7
  8
0
 62
     0
 10
-12.59325476397864
 20
2.3590590713462292
 30
0.0
 11
-12.59325476397864
 21
2.3590590713462292
 31
0.0
  0
LINE
  5
53AF8
  8
0
 62
     0
 10
-12.65954602471488
 20
2.2927678106099898
 30
0.0
 11
-12.65954602471488
 21
2.2927678106099898
 31
0.0
  0
LINE
  5
53AF9
  8
0
 62
     0
 10
-12.725837285451121
 20
2.2264765498737509
 30
0.0
 11
-12.725837285451121
 21
2.2264765498737509
 31
0.0
  0
LINE
  5
53AFA
  8
0
 62
     0
 10
-12.79212854618736
 20
2.160185289137512
 30
0.0
 11
-12.79212854618736
 21
2.160185289137512
 31
0.0
  0
LINE
  5
53AFB
  8
0
 62
     0
 10
-12.8584198069236
 20
2.093894028401273
 30
0.0
 11
-12.8584198069236
 21
2.093894028401273
 31
0.0
  0
LINE
  5
53AFC
  8
0
 62
     0
 10
-11.035410136677021
 20
4.049486220120321
 30
0.0
 11
-11.035410136677021
 21
4.049486220120321
 31
0.0
  0
LINE
  5
53AFD
  8
0
 62
     0
 10
-11.10170139741326
 20
3.983194959384083
 30
0.0
 11
-11.10170139741326
 21
3.983194959384083
 31
0.0
  0
LINE
  5
53AFE
  8
0
 62
     0
 10
-11.167992658149499
 20
3.916903698647844
 30
0.0
 11
-11.167992658149499
 21
3.916903698647844
 31
0.0
  0
LINE
  5
53AFF
  8
0
 62
     0
 10
-11.23428391888574
 20
3.8506124379116051
 30
0.0
 11
-11.23428391888574
 21
3.8506124379116051
 31
0.0
  0
LINE
  5
53B00
  8
0
 62
     0
 10
-11.30057517962198
 20
3.7843211771753662
 30
0.0
 11
-11.30057517962198
 21
3.7843211771753662
 31
0.0
  0
LINE
  5
53B01
  8
0
 62
     0
 10
-11.366866440358219
 20
3.7180299164391268
 30
0.0
 11
-11.366866440358219
 21
3.7180299164391268
 31
0.0
  0
LINE
  5
53B02
  8
0
 62
     0
 10
-11.43315770109445
 20
3.6517386557028879
 30
0.0
 11
-11.43315770109445
 21
3.6517386557028879
 31
0.0
  0
LINE
  5
53B03
  8
0
 62
     0
 10
-11.499448961830691
 20
3.585447394966649
 30
0.0
 11
-11.499448961830691
 21
3.585447394966649
 31
0.0
  0
LINE
  5
53B04
  8
0
 62
     0
 10
-11.56574022256693
 20
3.5191561342304101
 30
0.0
 11
-11.56574022256693
 21
3.5191561342304101
 31
0.0
  0
LINE
  5
53B05
  8
0
 62
     0
 10
-11.632031483303169
 20
3.452864873494172
 30
0.0
 11
-11.632031483303169
 21
3.452864873494172
 31
0.0
  0
LINE
  5
53B06
  8
0
 62
     0
 10
-11.698322744039411
 20
3.3865736127579331
 30
0.0
 11
-11.698322744039411
 21
3.3865736127579331
 31
0.0
  0
LINE
  5
53B07
  8
0
 62
     0
 10
-11.76461400477565
 20
3.3202823520216942
 30
0.0
 11
-11.76461400477565
 21
3.3202823520216942
 31
0.0
  0
LINE
  5
53B08
  8
0
 62
     0
 10
-11.830905265511889
 20
3.2539910912854548
 30
0.0
 11
-11.830905265511889
 21
3.2539910912854548
 31
0.0
  0
LINE
  5
53B09
  8
0
 62
     0
 10
-11.897196526248131
 20
3.1876998305492159
 30
0.0
 11
-11.897196526248131
 21
3.1876998305492159
 31
0.0
  0
LINE
  5
53B0A
  8
0
 62
     0
 10
-11.96348778698437
 20
3.121408569812977
 30
0.0
 11
-11.96348778698437
 21
3.121408569812977
 31
0.0
  0
LINE
  5
53B0B
  8
0
 62
     0
 10
-12.029779047720609
 20
3.0551173090767381
 30
0.0
 11
-12.029779047720609
 21
3.0551173090767381
 31
0.0
  0
LINE
  5
53B0C
  8
0
 62
     0
 10
-12.09607030845685
 20
2.9888260483404991
 30
0.0
 11
-12.09607030845685
 21
2.9888260483404991
 31
0.0
  0
LINE
  5
53B0D
  8
0
 62
     0
 10
-12.16236156919309
 20
2.9225347876042602
 30
0.0
 11
-12.16236156919309
 21
2.9225347876042602
 31
0.0
  0
LINE
  5
53B0E
  8
0
 62
     0
 10
-12.228652829929329
 20
2.8562435268680209
 30
0.0
 11
-12.228652829929329
 21
2.8562435268680209
 31
0.0
  0
LINE
  5
53B0F
  8
0
 62
     0
 10
-12.29494409066557
 20
2.7899522661317819
 30
0.0
 11
-12.29494409066557
 21
2.7899522661317819
 31
0.0
  0
LINE
  5
53B10
  8
0
 62
     0
 10
-12.36123535140181
 20
2.723661005395543
 30
0.0
 11
-12.36123535140181
 21
2.723661005395543
 31
0.0
  0
LINE
  5
53B11
  8
0
 62
     0
 10
-12.427526612138051
 20
2.6573697446593041
 30
0.0
 11
-12.427526612138051
 21
2.6573697446593041
 31
0.0
  0
LINE
  5
53B12
  8
0
 62
     0
 10
-12.493817872874279
 20
2.5910784839230661
 30
0.0
 11
-12.493817872874279
 21
2.5910784839230661
 31
0.0
  0
LINE
  5
53B13
  8
0
 62
     0
 10
-12.560109133610521
 20
2.5247872231868271
 30
0.0
 11
-12.560109133610521
 21
2.5247872231868271
 31
0.0
  0
LINE
  5
53B14
  8
0
 62
     0
 10
-12.62640039434676
 20
2.4584959624505882
 30
0.0
 11
-12.62640039434676
 21
2.4584959624505882
 31
0.0
  0
LINE
  5
53B15
  8
0
 62
     0
 10
-12.692691655082999
 20
2.3922047017143488
 30
0.0
 11
-12.692691655082999
 21
2.3922047017143488
 31
0.0
  0
LINE
  5
53B16
  8
0
 62
     0
 10
-12.75898291581924
 20
2.3259134409781099
 30
0.0
 11
-12.75898291581924
 21
2.3259134409781099
 31
0.0
  0
LINE
  5
53B17
  8
0
 62
     0
 10
-12.82527417655548
 20
2.259622180241871
 30
0.0
 11
-12.82527417655548
 21
2.259622180241871
 31
0.0
  0
LINE
  5
53B18
  8
0
 62
     0
 10
-12.891565437291719
 20
2.1933309195056321
 30
0.0
 11
-12.891565437291719
 21
2.1933309195056321
 31
0.0
  0
LINE
  5
53B19
  8
0
 62
     0
 10
-11.002264506308901
 20
4.2152143719609194
 30
0.0
 11
-11.002264506308901
 21
4.2152143719609194
 31
0.0
  0
LINE
  5
53B1A
  8
0
 62
     0
 10
-11.06855576704514
 20
4.14892311122468
 30
0.0
 11
-11.06855576704514
 21
4.14892311122468
 31
0.0
  0
LINE
  5
53B1B
  8
0
 62
     0
 10
-11.13484702778138
 20
4.0826318504884416
 30
0.0
 11
-11.13484702778138
 21
4.0826318504884416
 31
0.0
  0
LINE
  5
53B1C
  8
0
 62
     0
 10
-11.201138288517621
 20
4.0163405897522031
 30
0.0
 11
-11.201138288517621
 21
4.0163405897522031
 31
0.0
  0
LINE
  5
53B1D
  8
0
 62
     0
 10
-11.26742954925386
 20
3.9500493290159642
 30
0.0
 11
-11.26742954925386
 21
3.9500493290159642
 31
0.0
  0
LINE
  5
53B1E
  8
0
 62
     0
 10
-11.333720809990091
 20
3.8837580682797261
 30
0.0
 11
-11.333720809990091
 21
3.8837580682797261
 31
0.0
  0
LINE
  5
53B1F
  8
0
 62
     0
 10
-11.40001207072633
 20
3.8174668075434872
 30
0.0
 11
-11.40001207072633
 21
3.8174668075434872
 31
0.0
  0
LINE
  5
53B20
  8
0
 62
     0
 10
-11.466303331462569
 20
3.7511755468072479
 30
0.0
 11
-11.466303331462569
 21
3.7511755468072479
 31
0.0
  0
LINE
  5
53B21
  8
0
 62
     0
 10
-11.53259459219881
 20
3.6848842860710089
 30
0.0
 11
-11.53259459219881
 21
3.6848842860710089
 31
0.0
  0
LINE
  5
53B22
  8
0
 62
     0
 10
-11.59888585293505
 20
3.61859302533477
 30
0.0
 11
-11.59888585293505
 21
3.61859302533477
 31
0.0
  0
LINE
  5
53B23
  8
0
 62
     0
 10
-11.665177113671289
 20
3.5523017645985311
 30
0.0
 11
-11.665177113671289
 21
3.5523017645985311
 31
0.0
  0
LINE
  5
53B24
  8
0
 62
     0
 10
-11.73146837440753
 20
3.4860105038622922
 30
0.0
 11
-11.73146837440753
 21
3.4860105038622922
 31
0.0
  0
LINE
  5
53B25
  8
0
 62
     0
 10
-11.79775963514377
 20
3.4197192431260528
 30
0.0
 11
-11.79775963514377
 21
3.4197192431260528
 31
0.0
  0
LINE
  5
53B26
  8
0
 62
     0
 10
-11.864050895880011
 20
3.3534279823898139
 30
0.0
 11
-11.864050895880011
 21
3.3534279823898139
 31
0.0
  0
LINE
  5
53B27
  8
0
 62
     0
 10
-11.93034215661625
 20
3.287136721653575
 30
0.0
 11
-11.93034215661625
 21
3.287136721653575
 31
0.0
  0
LINE
  5
53B28
  8
0
 62
     0
 10
-11.99663341735249
 20
3.220845460917336
 30
0.0
 11
-11.99663341735249
 21
3.220845460917336
 31
0.0
  0
LINE
  5
53B29
  8
0
 62
     0
 10
-12.062924678088731
 20
3.154554200181098
 30
0.0
 11
-12.062924678088731
 21
3.154554200181098
 31
0.0
  0
LINE
  5
53B2A
  8
0
 62
     0
 10
-12.12921593882497
 20
3.0882629394448591
 30
0.0
 11
-12.12921593882497
 21
3.0882629394448591
 31
0.0
  0
LINE
  5
53B2B
  8
0
 62
     0
 10
-12.195507199561209
 20
3.0219716787086202
 30
0.0
 11
-12.195507199561209
 21
3.0219716787086202
 31
0.0
  0
LINE
  5
53B2C
  8
0
 62
     0
 10
-12.261798460297451
 20
2.9556804179723808
 30
0.0
 11
-12.261798460297451
 21
2.9556804179723808
 31
0.0
  0
LINE
  5
53B2D
  8
0
 62
     0
 10
-12.32808972103369
 20
2.8893891572361419
 30
0.0
 11
-12.32808972103369
 21
2.8893891572361419
 31
0.0
  0
LINE
  5
53B2E
  8
0
 62
     0
 10
-12.394380981769929
 20
2.8230978964999029
 30
0.0
 11
-12.394380981769929
 21
2.8230978964999029
 31
0.0
  0
LINE
  5
53B2F
  8
0
 62
     0
 10
-12.46067224250617
 20
2.756806635763664
 30
0.0
 11
-12.46067224250617
 21
2.756806635763664
 31
0.0
  0
LINE
  5
53B30
  8
0
 62
     0
 10
-12.526963503242399
 20
2.6905153750274251
 30
0.0
 11
-12.526963503242399
 21
2.6905153750274251
 31
0.0
  0
LINE
  5
53B31
  8
0
 62
     0
 10
-12.59325476397864
 20
2.6242241142911862
 30
0.0
 11
-12.59325476397864
 21
2.6242241142911862
 31
0.0
  0
LINE
  5
53B32
  8
0
 62
     0
 10
-12.65954602471488
 20
2.5579328535549468
 30
0.0
 11
-12.65954602471488
 21
2.5579328535549468
 31
0.0
  0
LINE
  5
53B33
  8
0
 62
     0
 10
-12.725837285451121
 20
2.4916415928187079
 30
0.0
 11
-12.725837285451121
 21
2.4916415928187079
 31
0.0
  0
LINE
  5
53B34
  8
0
 62
     0
 10
-12.79212854618736
 20
2.425350332082469
 30
0.0
 11
-12.79212854618736
 21
2.425350332082469
 31
0.0
  0
LINE
  5
53B35
  8
0
 62
     0
 10
-12.8584198069236
 20
2.3590590713462301
 30
0.0
 11
-12.8584198069236
 21
2.3590590713462301
 31
0.0
  0
LINE
  5
53B36
  8
0
 62
     0
 10
-11.035410136677021
 20
4.314651263065274
 30
0.0
 11
-11.035410136677021
 21
4.314651263065274
 31
0.0
  0
LINE
  5
53B37
  8
0
 62
     0
 10
-11.10170139741326
 20
4.2483600023290347
 30
0.0
 11
-11.10170139741326
 21
4.2483600023290347
 31
0.0
  0
LINE
  5
53B38
  8
0
 62
     0
 10
-11.167992658149499
 20
4.1820687415927971
 30
0.0
 11
-11.167992658149499
 21
4.1820687415927971
 31
0.0
  0
LINE
  5
53B39
  8
0
 62
     0
 10
-11.23428391888574
 20
4.1157774808565577
 30
0.0
 11
-11.23428391888574
 21
4.1157774808565577
 31
0.0
  0
LINE
  5
53B3A
  8
0
 62
     0
 10
-11.30057517962198
 20
4.0494862201203201
 30
0.0
 11
-11.30057517962198
 21
4.0494862201203201
 31
0.0
  0
LINE
  5
53B3B
  8
0
 62
     0
 10
-11.366866440358219
 20
3.9831949593840812
 30
0.0
 11
-11.366866440358219
 21
3.9831949593840812
 31
0.0
  0
LINE
  5
53B3C
  8
0
 62
     0
 10
-11.43315770109445
 20
3.9169036986478418
 30
0.0
 11
-11.43315770109445
 21
3.9169036986478418
 31
0.0
  0
LINE
  5
53B3D
  8
0
 62
     0
 10
-11.499448961830691
 20
3.8506124379116029
 30
0.0
 11
-11.499448961830691
 21
3.8506124379116029
 31
0.0
  0
LINE
  5
53B3E
  8
0
 62
     0
 10
-11.56574022256693
 20
3.784321177175364
 30
0.0
 11
-11.56574022256693
 21
3.784321177175364
 31
0.0
  0
LINE
  5
53B3F
  8
0
 62
     0
 10
-11.632031483303169
 20
3.7180299164391251
 30
0.0
 11
-11.632031483303169
 21
3.7180299164391251
 31
0.0
  0
LINE
  5
53B40
  8
0
 62
     0
 10
-11.698322744039411
 20
3.651738655702887
 30
0.0
 11
-11.698322744039411
 21
3.651738655702887
 31
0.0
  0
LINE
  5
53B41
  8
0
 62
     0
 10
-11.76461400477565
 20
3.5854473949666481
 30
0.0
 11
-11.76461400477565
 21
3.5854473949666481
 31
0.0
  0
LINE
  5
53B42
  8
0
 62
     0
 10
-11.830905265511889
 20
3.5191561342304092
 30
0.0
 11
-11.830905265511889
 21
3.5191561342304092
 31
0.0
  0
LINE
  5
53B43
  8
0
 62
     0
 10
-11.897196526248131
 20
3.4528648734941698
 30
0.0
 11
-11.897196526248131
 21
3.4528648734941698
 31
0.0
  0
LINE
  5
53B44
  8
0
 62
     0
 10
-11.96348778698437
 20
3.3865736127579309
 30
0.0
 11
-11.96348778698437
 21
3.3865736127579309
 31
0.0
  0
LINE
  5
53B45
  8
0
 62
     0
 10
-12.029779047720609
 20
3.320282352021692
 30
0.0
 11
-12.029779047720609
 21
3.320282352021692
 31
0.0
  0
LINE
  5
53B46
  8
0
 62
     0
 10
-12.09607030845685
 20
3.2539910912854531
 30
0.0
 11
-12.09607030845685
 21
3.2539910912854531
 31
0.0
  0
LINE
  5
53B47
  8
0
 62
     0
 10
-12.16236156919309
 20
3.1876998305492141
 30
0.0
 11
-12.16236156919309
 21
3.1876998305492141
 31
0.0
  0
LINE
  5
53B48
  8
0
 62
     0
 10
-12.228652829929329
 20
3.1214085698129752
 30
0.0
 11
-12.228652829929329
 21
3.1214085698129752
 31
0.0
  0
LINE
  5
53B49
  8
0
 62
     0
 10
-12.29494409066557
 20
3.0551173090767358
 30
0.0
 11
-12.29494409066557
 21
3.0551173090767358
 31
0.0
  0
LINE
  5
53B4A
  8
0
 62
     0
 10
-12.36123535140181
 20
2.9888260483404969
 30
0.0
 11
-12.36123535140181
 21
2.9888260483404969
 31
0.0
  0
LINE
  5
53B4B
  8
0
 62
     0
 10
-12.427526612138051
 20
2.922534787604258
 30
0.0
 11
-12.427526612138051
 21
2.922534787604258
 31
0.0
  0
LINE
  5
53B4C
  8
0
 62
     0
 10
-12.493817872874279
 20
2.85624352686802
 30
0.0
 11
-12.493817872874279
 21
2.85624352686802
 31
0.0
  0
LINE
  5
53B4D
  8
0
 62
     0
 10
-12.560109133610521
 20
2.789952266131781
 30
0.0
 11
-12.560109133610521
 21
2.789952266131781
 31
0.0
  0
LINE
  5
53B4E
  8
0
 62
     0
 10
-12.62640039434676
 20
2.7236610053955421
 30
0.0
 11
-12.62640039434676
 21
2.7236610053955421
 31
0.0
  0
LINE
  5
53B4F
  8
0
 62
     0
 10
-12.692691655082999
 20
2.6573697446593032
 30
0.0
 11
-12.692691655082999
 21
2.6573697446593032
 31
0.0
  0
LINE
  5
53B50
  8
0
 62
     0
 10
-12.75898291581924
 20
2.5910784839230638
 30
0.0
 11
-12.75898291581924
 21
2.5910784839230638
 31
0.0
  0
LINE
  5
53B51
  8
0
 62
     0
 10
-12.82527417655548
 20
2.5247872231868249
 30
0.0
 11
-12.82527417655548
 21
2.5247872231868249
 31
0.0
  0
LINE
  5
53B52
  8
0
 62
     0
 10
-12.891565437291719
 20
2.458495962450586
 30
0.0
 11
-12.891565437291719
 21
2.458495962450586
 31
0.0
  0
LINE
  5
53B53
  8
0
 62
     0
 10
-11.002264506308901
 20
4.4803794149058724
 30
0.0
 11
-11.002264506308901
 21
4.4803794149058724
 31
0.0
  0
LINE
  5
53B54
  8
0
 62
     0
 10
-11.06855576704514
 20
4.4140881541696331
 30
0.0
 11
-11.06855576704514
 21
4.4140881541696331
 31
0.0
  0
LINE
  5
53B55
  8
0
 62
     0
 10
-11.13484702778138
 20
4.3477968934333946
 30
0.0
 11
-11.13484702778138
 21
4.3477968934333946
 31
0.0
  0
LINE
  5
53B56
  8
0
 62
     0
 10
-11.201138288517621
 20
4.281505632697157
 30
0.0
 11
-11.201138288517621
 21
4.281505632697157
 31
0.0
  0
LINE
  5
53B57
  8
0
 62
     0
 10
-11.26742954925386
 20
4.2152143719609176
 30
0.0
 11
-11.26742954925386
 21
4.2152143719609176
 31
0.0
  0
LINE
  5
53B58
  8
0
 62
     0
 10
-11.333720809990091
 20
4.14892311122468
 30
0.0
 11
-11.333720809990091
 21
4.14892311122468
 31
0.0
  0
LINE
  5
53B59
  8
0
 62
     0
 10
-11.40001207072633
 20
4.0826318504884407
 30
0.0
 11
-11.40001207072633
 21
4.0826318504884407
 31
0.0
  0
LINE
  5
53B5A
  8
0
 62
     0
 10
-11.466303331462569
 20
4.0163405897522031
 30
0.0
 11
-11.466303331462569
 21
4.0163405897522031
 31
0.0
  0
LINE
  5
53B5B
  8
0
 62
     0
 10
-11.53259459219881
 20
3.9500493290159642
 30
0.0
 11
-11.53259459219881
 21
3.9500493290159642
 31
0.0
  0
LINE
  5
53B5C
  8
0
 62
     0
 10
-11.59888585293505
 20
3.8837580682797248
 30
0.0
 11
-11.59888585293505
 21
3.8837580682797248
 31
0.0
  0
LINE
  5
53B5D
  8
0
 62
     0
 10
-11.665177113671289
 20
3.8174668075434859
 30
0.0
 11
-11.665177113671289
 21
3.8174668075434859
 31
0.0
  0
LINE
  5
53B5E
  8
0
 62
     0
 10
-11.73146837440753
 20
3.751175546807247
 30
0.0
 11
-11.73146837440753
 21
3.751175546807247
 31
0.0
  0
LINE
  5
53B5F
  8
0
 62
     0
 10
-11.79775963514377
 20
3.684884286071008
 30
0.0
 11
-11.79775963514377
 21
3.684884286071008
 31
0.0
  0
LINE
  5
53B60
  8
0
 62
     0
 10
-11.864050895880011
 20
3.61859302533477
 30
0.0
 11
-11.864050895880011
 21
3.61859302533477
 31
0.0
  0
LINE
  5
53B61
  8
0
 62
     0
 10
-11.93034215661625
 20
3.5523017645985311
 30
0.0
 11
-11.93034215661625
 21
3.5523017645985311
 31
0.0
  0
LINE
  5
53B62
  8
0
 62
     0
 10
-11.99663341735249
 20
3.4860105038622922
 30
0.0
 11
-11.99663341735249
 21
3.4860105038622922
 31
0.0
  0
LINE
  5
53B63
  8
0
 62
     0
 10
-12.062924678088731
 20
3.4197192431260528
 30
0.0
 11
-12.062924678088731
 21
3.4197192431260528
 31
0.0
  0
LINE
  5
53B64
  8
0
 62
     0
 10
-12.12921593882497
 20
3.3534279823898139
 30
0.0
 11
-12.12921593882497
 21
3.3534279823898139
 31
0.0
  0
LINE
  5
53B65
  8
0
 62
     0
 10
-12.195507199561209
 20
3.287136721653575
 30
0.0
 11
-12.195507199561209
 21
3.287136721653575
 31
0.0
  0
LINE
  5
53B66
  8
0
 62
     0
 10
-12.261798460297451
 20
3.220845460917336
 30
0.0
 11
-12.261798460297451
 21
3.220845460917336
 31
0.0
  0
LINE
  5
53B67
  8
0
 62
     0
 10
-12.32808972103369
 20
3.1545542001810971
 30
0.0
 11
-12.32808972103369
 21
3.1545542001810971
 31
0.0
  0
LINE
  5
53B68
  8
0
 62
     0
 10
-12.39438098176992
 20
3.0882629394448582
 30
0.0
 11
-12.39438098176992
 21
3.0882629394448582
 31
0.0
  0
LINE
  5
53B69
  8
0
 62
     0
 10
-12.46067224250616
 20
3.0219716787086188
 30
0.0
 11
-12.46067224250616
 21
3.0219716787086188
 31
0.0
  0
LINE
  5
53B6A
  8
0
 62
     0
 10
-12.526963503242399
 20
2.9556804179723799
 30
0.0
 11
-12.526963503242399
 21
2.9556804179723799
 31
0.0
  0
LINE
  5
53B6B
  8
0
 62
     0
 10
-12.59325476397864
 20
2.889389157236141
 30
0.0
 11
-12.59325476397864
 21
2.889389157236141
 31
0.0
  0
LINE
  5
53B6C
  8
0
 62
     0
 10
-12.65954602471488
 20
2.8230978964999021
 30
0.0
 11
-12.65954602471488
 21
2.8230978964999021
 31
0.0
  0
LINE
  5
53B6D
  8
0
 62
     0
 10
-12.725837285451121
 20
2.756806635763664
 30
0.0
 11
-12.725837285451121
 21
2.756806635763664
 31
0.0
  0
LINE
  5
53B6E
  8
0
 62
     0
 10
-12.79212854618736
 20
2.6905153750274251
 30
0.0
 11
-12.79212854618736
 21
2.6905153750274251
 31
0.0
  0
LINE
  5
53B6F
  8
0
 62
     0
 10
-12.8584198069236
 20
2.6242241142911862
 30
0.0
 11
-12.8584198069236
 21
2.6242241142911862
 31
0.0
  0
LINE
  5
53B70
  8
0
 62
     0
 10
-11.035410136677021
 20
4.5798163060102306
 30
0.0
 11
-11.035410136677021
 21
4.5798163060102306
 31
0.0
  0
LINE
  5
53B71
  8
0
 62
     0
 10
-11.10170139741326
 20
4.513525045273993
 30
0.0
 11
-11.10170139741326
 21
4.513525045273993
 31
0.0
  0
LINE
  5
53B72
  8
0
 62
     0
 10
-11.16799265814949
 20
4.4472337845377536
 30
0.0
 11
-11.16799265814949
 21
4.4472337845377536
 31
0.0
  0
LINE
  5
53B73
  8
0
 62
     0
 10
-11.23428391888573
 20
4.3809425238015161
 30
0.0
 11
-11.23428391888573
 21
4.3809425238015161
 31
0.0
  0
LINE
  5
53B74
  8
0
 62
     0
 10
-11.300575179621969
 20
4.3146512630652767
 30
0.0
 11
-11.300575179621969
 21
4.3146512630652767
 31
0.0
  0
LINE
  5
53B75
  8
0
 62
     0
 10
-11.36686644035821
 20
4.2483600023290391
 30
0.0
 11
-11.36686644035821
 21
4.2483600023290391
 31
0.0
  0
LINE
  5
53B76
  8
0
 62
     0
 10
-11.43315770109445
 20
4.1820687415927997
 30
0.0
 11
-11.43315770109445
 21
4.1820687415927997
 31
0.0
  0
LINE
  5
53B77
  8
0
 62
     0
 10
-11.499448961830691
 20
4.1157774808565621
 30
0.0
 11
-11.499448961830691
 21
4.1157774808565621
 31
0.0
  0
LINE
  5
53B78
  8
0
 62
     0
 10
-11.56574022256693
 20
4.0494862201203228
 30
0.0
 11
-11.56574022256693
 21
4.0494862201203228
 31
0.0
  0
LINE
  5
53B79
  8
0
 62
     0
 10
-11.632031483303169
 20
3.9831949593840852
 30
0.0
 11
-11.632031483303169
 21
3.9831949593840852
 31
0.0
  0
LINE
  5
53B7A
  8
0
 62
     0
 10
-11.698322744039411
 20
3.9169036986478458
 30
0.0
 11
-11.698322744039411
 21
3.9169036986478458
 31
0.0
  0
LINE
  5
53B7B
  8
0
 62
     0
 10
-11.76461400477565
 20
3.8506124379116069
 30
0.0
 11
-11.76461400477565
 21
3.8506124379116069
 31
0.0
  0
LINE
  5
53B7C
  8
0
 62
     0
 10
-11.830905265511889
 20
3.784321177175368
 30
0.0
 11
-11.830905265511889
 21
3.784321177175368
 31
0.0
  0
LINE
  5
53B7D
  8
0
 62
     0
 10
-11.897196526248131
 20
3.7180299164391291
 30
0.0
 11
-11.897196526248131
 21
3.7180299164391291
 31
0.0
  0
LINE
  5
53B7E
  8
0
 62
     0
 10
-11.96348778698437
 20
3.6517386557028901
 30
0.0
 11
-11.96348778698437
 21
3.6517386557028901
 31
0.0
  0
LINE
  5
53B7F
  8
0
 62
     0
 10
-12.029779047720609
 20
3.5854473949666512
 30
0.0
 11
-12.029779047720609
 21
3.5854473949666512
 31
0.0
  0
LINE
  5
53B80
  8
0
 62
     0
 10
-12.09607030845685
 20
3.5191561342304118
 30
0.0
 11
-12.09607030845685
 21
3.5191561342304118
 31
0.0
  0
LINE
  5
53B81
  8
0
 62
     0
 10
-12.16236156919309
 20
3.4528648734941729
 30
0.0
 11
-12.16236156919309
 21
3.4528648734941729
 31
0.0
  0
LINE
  5
53B82
  8
0
 62
     0
 10
-12.22865282992932
 20
3.386573612757934
 30
0.0
 11
-12.22865282992932
 21
3.386573612757934
 31
0.0
  0
LINE
  5
53B83
  8
0
 62
     0
 10
-12.29494409066556
 20
3.3202823520216951
 30
0.0
 11
-12.29494409066556
 21
3.3202823520216951
 31
0.0
  0
LINE
  5
53B84
  8
0
 62
     0
 10
-12.361235351401801
 20
3.253991091285457
 30
0.0
 11
-12.361235351401801
 21
3.253991091285457
 31
0.0
  0
LINE
  5
53B85
  8
0
 62
     0
 10
-12.42752661213804
 20
3.1876998305492181
 30
0.0
 11
-12.42752661213804
 21
3.1876998305492181
 31
0.0
  0
LINE
  5
53B86
  8
0
 62
     0
 10
-12.493817872874279
 20
3.1214085698129792
 30
0.0
 11
-12.493817872874279
 21
3.1214085698129792
 31
0.0
  0
LINE
  5
53B87
  8
0
 62
     0
 10
-12.560109133610521
 20
3.0551173090767398
 30
0.0
 11
-12.560109133610521
 21
3.0551173090767398
 31
0.0
  0
LINE
  5
53B88
  8
0
 62
     0
 10
-12.62640039434676
 20
2.9888260483405009
 30
0.0
 11
-12.62640039434676
 21
2.9888260483405009
 31
0.0
  0
LINE
  5
53B89
  8
0
 62
     0
 10
-12.692691655082999
 20
2.922534787604262
 30
0.0
 11
-12.692691655082999
 21
2.922534787604262
 31
0.0
  0
LINE
  5
53B8A
  8
0
 62
     0
 10
-12.75898291581924
 20
2.8562435268680231
 30
0.0
 11
-12.75898291581924
 21
2.8562435268680231
 31
0.0
  0
LINE
  5
53B8B
  8
0
 62
     0
 10
-12.82527417655548
 20
2.7899522661317842
 30
0.0
 11
-12.82527417655548
 21
2.7899522661317842
 31
0.0
  0
LINE
  5
53B8C
  8
0
 62
     0
 10
-12.891565437291719
 20
2.7236610053955448
 30
0.0
 11
-12.891565437291719
 21
2.7236610053955448
 31
0.0
  0
LINE
  5
53B8D
  8
0
 62
     0
 10
-11.002264506308901
 20
4.7455444578508228
 30
0.0
 11
-11.002264506308901
 21
4.7455444578508228
 31
0.0
  0
LINE
  5
53B8E
  8
0
 62
     0
 10
-11.06855576704514
 20
4.6792531971145852
 30
0.0
 11
-11.06855576704514
 21
4.6792531971145852
 31
0.0
  0
LINE
  5
53B8F
  8
0
 62
     0
 10
-11.13484702778138
 20
4.6129619363783458
 30
0.0
 11
-11.13484702778138
 21
4.6129619363783458
 31
0.0
  0
LINE
  5
53B90
  8
0
 62
     0
 10
-11.201138288517621
 20
4.5466706756421083
 30
0.0
 11
-11.201138288517621
 21
4.5466706756421083
 31
0.0
  0
LINE
  5
53B91
  8
0
 62
     0
 10
-11.26742954925386
 20
4.4803794149058689
 30
0.0
 11
-11.26742954925386
 21
4.4803794149058689
 31
0.0
  0
LINE
  5
53B92
  8
0
 62
     0
 10
-11.333720809990091
 20
4.4140881541696313
 30
0.0
 11
-11.333720809990091
 21
4.4140881541696313
 31
0.0
  0
LINE
  5
53B93
  8
0
 62
     0
 10
-11.40001207072633
 20
4.3477968934333919
 30
0.0
 11
-11.40001207072633
 21
4.3477968934333919
 31
0.0
  0
LINE
  5
53B94
  8
0
 62
     0
 10
-11.466303331462569
 20
4.2815056326971543
 30
0.0
 11
-11.466303331462569
 21
4.2815056326971543
 31
0.0
  0
LINE
  5
53B95
  8
0
 62
     0
 10
-11.53259459219881
 20
4.215214371960915
 30
0.0
 11
-11.53259459219881
 21
4.215214371960915
 31
0.0
  0
LINE
  5
53B96
  8
0
 62
     0
 10
-11.59888585293505
 20
4.1489231112246774
 30
0.0
 11
-11.59888585293505
 21
4.1489231112246774
 31
0.0
  0
LINE
  5
53B97
  8
0
 62
     0
 10
-11.665177113671289
 20
4.082631850488438
 30
0.0
 11
-11.665177113671289
 21
4.082631850488438
 31
0.0
  0
LINE
  5
53B98
  8
0
 62
     0
 10
-11.73146837440753
 20
4.0163405897522004
 30
0.0
 11
-11.73146837440753
 21
4.0163405897522004
 31
0.0
  0
LINE
  5
53B99
  8
0
 62
     0
 10
-11.79775963514377
 20
3.9500493290159611
 30
0.0
 11
-11.79775963514377
 21
3.9500493290159611
 31
0.0
  0
LINE
  5
53B9A
  8
0
 62
     0
 10
-11.864050895880011
 20
3.8837580682797221
 30
0.0
 11
-11.864050895880011
 21
3.8837580682797221
 31
0.0
  0
LINE
  5
53B9B
  8
0
 62
     0
 10
-11.93034215661625
 20
3.8174668075434832
 30
0.0
 11
-11.93034215661625
 21
3.8174668075434832
 31
0.0
  0
LINE
  5
53B9C
  8
0
 62
     0
 10
-11.99663341735249
 20
3.7511755468072439
 30
0.0
 11
-11.99663341735249
 21
3.7511755468072439
 31
0.0
  0
LINE
  5
53B9D
  8
0
 62
     0
 10
-12.062924678088731
 20
3.6848842860710049
 30
0.0
 11
-12.062924678088731
 21
3.6848842860710049
 31
0.0
  0
LINE
  5
53B9E
  8
0
 62
     0
 10
-12.12921593882497
 20
3.618593025334766
 30
0.0
 11
-12.12921593882497
 21
3.618593025334766
 31
0.0
  0
LINE
  5
53B9F
  8
0
 62
     0
 10
-12.195507199561209
 20
3.5523017645985271
 30
0.0
 11
-12.195507199561209
 21
3.5523017645985271
 31
0.0
  0
LINE
  5
53BA0
  8
0
 62
     0
 10
-12.261798460297451
 20
3.4860105038622891
 30
0.0
 11
-12.261798460297451
 21
3.4860105038622891
 31
0.0
  0
LINE
  5
53BA1
  8
0
 62
     0
 10
-12.32808972103369
 20
3.4197192431260501
 30
0.0
 11
-12.32808972103369
 21
3.4197192431260501
 31
0.0
  0
LINE
  5
53BA2
  8
0
 62
     0
 10
-12.394380981769929
 20
3.3534279823898112
 30
0.0
 11
-12.394380981769929
 21
3.3534279823898112
 31
0.0
  0
LINE
  5
53BA3
  8
0
 62
     0
 10
-12.46067224250617
 20
3.2871367216535718
 30
0.0
 11
-12.46067224250617
 21
3.2871367216535718
 31
0.0
  0
LINE
  5
53BA4
  8
0
 62
     0
 10
-12.526963503242399
 20
3.2208454609173329
 30
0.0
 11
-12.526963503242399
 21
3.2208454609173329
 31
0.0
  0
LINE
  5
53BA5
  8
0
 62
     0
 10
-12.59325476397864
 20
3.154554200181094
 30
0.0
 11
-12.59325476397864
 21
3.154554200181094
 31
0.0
  0
LINE
  5
53BA6
  8
0
 62
     0
 10
-12.65954602471488
 20
3.0882629394448551
 30
0.0
 11
-12.65954602471488
 21
3.0882629394448551
 31
0.0
  0
LINE
  5
53BA7
  8
0
 62
     0
 10
-12.725837285451121
 20
3.0219716787086162
 30
0.0
 11
-12.725837285451121
 21
3.0219716787086162
 31
0.0
  0
LINE
  5
53BA8
  8
0
 62
     0
 10
-12.79212854618736
 20
2.9556804179723768
 30
0.0
 11
-12.79212854618736
 21
2.9556804179723768
 31
0.0
  0
LINE
  5
53BA9
  8
0
 62
     0
 10
-12.8584198069236
 20
2.8893891572361379
 30
0.0
 11
-12.8584198069236
 21
2.8893891572361379
 31
0.0
  0
LINE
  5
53BAA
  8
0
 62
     0
 10
-11.035410136677021
 20
4.844981348955181
 30
0.0
 11
-11.035410136677021
 21
4.844981348955181
 31
0.0
  0
LINE
  5
53BAB
  8
0
 62
     0
 10
-11.10170139741326
 20
4.7786900882189434
 30
0.0
 11
-11.10170139741326
 21
4.7786900882189434
 31
0.0
  0
LINE
  5
53BAC
  8
0
 62
     0
 10
-11.167992658149499
 20
4.712398827482704
 30
0.0
 11
-11.167992658149499
 21
4.712398827482704
 31
0.0
  0
LINE
  5
53BAD
  8
0
 62
     0
 10
-11.23428391888574
 20
4.6461075667464664
 30
0.0
 11
-11.23428391888574
 21
4.6461075667464664
 31
0.0
  0
LINE
  5
53BAE
  8
0
 62
     0
 10
-11.30057517962198
 20
4.579816306010227
 30
0.0
 11
-11.30057517962198
 21
4.579816306010227
 31
0.0
  0
LINE
  5
53BAF
  8
0
 62
     0
 10
-11.366866440358219
 20
4.5135250452739886
 30
0.0
 11
-11.366866440358219
 21
4.5135250452739886
 31
0.0
  0
LINE
  5
53BB0
  8
0
 62
     0
 10
-11.43315770109445
 20
4.4472337845377501
 30
0.0
 11
-11.43315770109445
 21
4.4472337845377501
 31
0.0
  0
LINE
  5
53BB1
  8
0
 62
     0
 10
-11.499448961830691
 20
4.3809425238015116
 30
0.0
 11
-11.499448961830691
 21
4.3809425238015116
 31
0.0
  0
LINE
  5
53BB2
  8
0
 62
     0
 10
-11.56574022256693
 20
4.314651263065274
 30
0.0
 11
-11.56574022256693
 21
4.314651263065274
 31
0.0
  0
LINE
  5
53BB3
  8
0
 62
     0
 10
-11.632031483303169
 20
4.2483600023290347
 30
0.0
 11
-11.632031483303169
 21
4.2483600023290347
 31
0.0
  0
LINE
  5
53BB4
  8
0
 62
     0
 10
-11.698322744039411
 20
4.1820687415927971
 30
0.0
 11
-11.698322744039411
 21
4.1820687415927971
 31
0.0
  0
LINE
  5
53BB5
  8
0
 62
     0
 10
-11.76461400477565
 20
4.1157774808565577
 30
0.0
 11
-11.76461400477565
 21
4.1157774808565577
 31
0.0
  0
LINE
  5
53BB6
  8
0
 62
     0
 10
-11.830905265511889
 20
4.0494862201203201
 30
0.0
 11
-11.830905265511889
 21
4.0494862201203201
 31
0.0
  0
LINE
  5
53BB7
  8
0
 62
     0
 10
-11.897196526248131
 20
3.9831949593840812
 30
0.0
 11
-11.897196526248131
 21
3.9831949593840812
 31
0.0
  0
LINE
  5
53BB8
  8
0
 62
     0
 10
-11.96348778698437
 20
3.9169036986478418
 30
0.0
 11
-11.96348778698437
 21
3.9169036986478418
 31
0.0
  0
LINE
  5
53BB9
  8
0
 62
     0
 10
-12.029779047720609
 20
3.8506124379116029
 30
0.0
 11
-12.029779047720609
 21
3.8506124379116029
 31
0.0
  0
LINE
  5
53BBA
  8
0
 62
     0
 10
-12.09607030845685
 20
3.784321177175364
 30
0.0
 11
-12.09607030845685
 21
3.784321177175364
 31
0.0
  0
LINE
  5
53BBB
  8
0
 62
     0
 10
-12.16236156919309
 20
3.7180299164391251
 30
0.0
 11
-12.16236156919309
 21
3.7180299164391251
 31
0.0
  0
LINE
  5
53BBC
  8
0
 62
     0
 10
-12.228652829929329
 20
3.651738655702887
 30
0.0
 11
-12.228652829929329
 21
3.651738655702887
 31
0.0
  0
LINE
  5
53BBD
  8
0
 62
     0
 10
-12.29494409066557
 20
3.5854473949666481
 30
0.0
 11
-12.29494409066557
 21
3.5854473949666481
 31
0.0
  0
LINE
  5
53BBE
  8
0
 62
     0
 10
-12.36123535140181
 20
3.5191561342304092
 30
0.0
 11
-12.36123535140181
 21
3.5191561342304092
 31
0.0
  0
LINE
  5
53BBF
  8
0
 62
     0
 10
-12.427526612138051
 20
3.4528648734941698
 30
0.0
 11
-12.427526612138051
 21
3.4528648734941698
 31
0.0
  0
LINE
  5
53BC0
  8
0
 62
     0
 10
-12.493817872874279
 20
3.3865736127579309
 30
0.0
 11
-12.493817872874279
 21
3.3865736127579309
 31
0.0
  0
LINE
  5
53BC1
  8
0
 62
     0
 10
-12.560109133610521
 20
3.320282352021692
 30
0.0
 11
-12.560109133610521
 21
3.320282352021692
 31
0.0
  0
LINE
  5
53BC2
  8
0
 62
     0
 10
-12.62640039434676
 20
3.2539910912854531
 30
0.0
 11
-12.62640039434676
 21
3.2539910912854531
 31
0.0
  0
LINE
  5
53BC3
  8
0
 62
     0
 10
-12.692691655082999
 20
3.1876998305492141
 30
0.0
 11
-12.692691655082999
 21
3.1876998305492141
 31
0.0
  0
LINE
  5
53BC4
  8
0
 62
     0
 10
-12.75898291581924
 20
3.1214085698129752
 30
0.0
 11
-12.75898291581924
 21
3.1214085698129752
 31
0.0
  0
LINE
  5
53BC5
  8
0
 62
     0
 10
-12.82527417655548
 20
3.0551173090767358
 30
0.0
 11
-12.82527417655548
 21
3.0551173090767358
 31
0.0
  0
LINE
  5
53BC6
  8
0
 62
     0
 10
-12.891565437291719
 20
2.9888260483404969
 30
0.0
 11
-12.891565437291719
 21
2.9888260483404969
 31
0.0
  0
LINE
  5
53BC7
  8
0
 62
     0
 10
-11.00226450630889
 20
5.0107095007957829
 30
0.0
 11
-11.00226450630889
 21
5.0107095007957829
 31
0.0
  0
LINE
  5
53BC8
  8
0
 62
     0
 10
-11.06855576704513
 20
4.9444182400595453
 30
0.0
 11
-11.06855576704513
 21
4.9444182400595453
 31
0.0
  0
LINE
  5
53BC9
  8
0
 62
     0
 10
-11.134847027781371
 20
4.878126979323306
 30
0.0
 11
-11.134847027781371
 21
4.878126979323306
 31
0.0
  0
LINE
  5
53BCA
  8
0
 62
     0
 10
-11.20113828851761
 20
4.8118357185870684
 30
0.0
 11
-11.20113828851761
 21
4.8118357185870684
 31
0.0
  0
LINE
  5
53BCB
  8
0
 62
     0
 10
-11.267429549253849
 20
4.745544457850829
 30
0.0
 11
-11.267429549253849
 21
4.745544457850829
 31
0.0
  0
LINE
  5
53BCC
  8
0
 62
     0
 10
-11.333720809990091
 20
4.6792531971145914
 30
0.0
 11
-11.333720809990091
 21
4.6792531971145914
 31
0.0
  0
LINE
  5
53BCD
  8
0
 62
     0
 10
-11.40001207072633
 20
4.6129619363783521
 30
0.0
 11
-11.40001207072633
 21
4.6129619363783521
 31
0.0
  0
LINE
  5
53BCE
  8
0
 62
     0
 10
-11.466303331462569
 20
4.5466706756421136
 30
0.0
 11
-11.466303331462569
 21
4.5466706756421136
 31
0.0
  0
LINE
  5
53BCF
  8
0
 62
     0
 10
-11.53259459219881
 20
4.4803794149058751
 30
0.0
 11
-11.53259459219881
 21
4.4803794149058751
 31
0.0
  0
LINE
  5
53BD0
  8
0
 62
     0
 10
-11.59888585293505
 20
4.4140881541696366
 30
0.0
 11
-11.59888585293505
 21
4.4140881541696366
 31
0.0
  0
LINE
  5
53BD1
  8
0
 62
     0
 10
-11.665177113671289
 20
4.347796893433399
 30
0.0
 11
-11.665177113671289
 21
4.347796893433399
 31
0.0
  0
LINE
  5
53BD2
  8
0
 62
     0
 10
-11.73146837440753
 20
4.2815056326971597
 30
0.0
 11
-11.73146837440753
 21
4.2815056326971597
 31
0.0
  0
LINE
  5
53BD3
  8
0
 62
     0
 10
-11.797759635143761
 20
4.2152143719609221
 30
0.0
 11
-11.797759635143761
 21
4.2152143719609221
 31
0.0
  0
LINE
  5
53BD4
  8
0
 62
     0
 10
-11.86405089588
 20
4.1489231112246827
 30
0.0
 11
-11.86405089588
 21
4.1489231112246827
 31
0.0
  0
LINE
  5
53BD5
  8
0
 62
     0
 10
-11.93034215661624
 20
4.0826318504884451
 30
0.0
 11
-11.93034215661624
 21
4.0826318504884451
 31
0.0
  0
LINE
  5
53BD6
  8
0
 62
     0
 10
-11.996633417352481
 20
4.0163405897522058
 30
0.0
 11
-11.996633417352481
 21
4.0163405897522058
 31
0.0
  0
LINE
  5
53BD7
  8
0
 62
     0
 10
-12.06292467808872
 20
3.9500493290159682
 30
0.0
 11
-12.06292467808872
 21
3.9500493290159682
 31
0.0
  0
LINE
  5
53BD8
  8
0
 62
     0
 10
-12.129215938824959
 20
3.8837580682797288
 30
0.0
 11
-12.129215938824959
 21
3.8837580682797288
 31
0.0
  0
LINE
  5
53BD9
  8
0
 62
     0
 10
-12.195507199561201
 20
3.8174668075434899
 30
0.0
 11
-12.195507199561201
 21
3.8174668075434899
 31
0.0
  0
LINE
  5
53BDA
  8
0
 62
     0
 10
-12.26179846029744
 20
3.751175546807251
 30
0.0
 11
-12.26179846029744
 21
3.751175546807251
 31
0.0
  0
LINE
  5
53BDB
  8
0
 62
     0
 10
-12.328089721033679
 20
3.684884286071012
 30
0.0
 11
-12.328089721033679
 21
3.684884286071012
 31
0.0
  0
LINE
  5
53BDC
  8
0
 62
     0
 10
-12.39438098176992
 20
3.6185930253347731
 30
0.0
 11
-12.39438098176992
 21
3.6185930253347731
 31
0.0
  0
LINE
  5
53BDD
  8
0
 62
     0
 10
-12.46067224250616
 20
3.5523017645985342
 30
0.0
 11
-12.46067224250616
 21
3.5523017645985342
 31
0.0
  0
LINE
  5
53BDE
  8
0
 62
     0
 10
-12.526963503242399
 20
3.4860105038622948
 30
0.0
 11
-12.526963503242399
 21
3.4860105038622948
 31
0.0
  0
LINE
  5
53BDF
  8
0
 62
     0
 10
-12.59325476397864
 20
3.4197192431260559
 30
0.0
 11
-12.59325476397864
 21
3.4197192431260559
 31
0.0
  0
LINE
  5
53BE0
  8
0
 62
     0
 10
-12.65954602471488
 20
3.353427982389817
 30
0.0
 11
-12.65954602471488
 21
3.353427982389817
 31
0.0
  0
LINE
  5
53BE1
  8
0
 62
     0
 10
-12.725837285451121
 20
3.2871367216535781
 30
0.0
 11
-12.725837285451121
 21
3.2871367216535781
 31
0.0
  0
LINE
  5
53BE2
  8
0
 62
     0
 10
-12.79212854618736
 20
3.22084546091734
 30
0.0
 11
-12.79212854618736
 21
3.22084546091734
 31
0.0
  0
LINE
  5
53BE3
  8
0
 62
     0
 10
-12.858419806923591
 20
3.1545542001811011
 30
0.0
 11
-12.858419806923591
 21
3.1545542001811011
 31
0.0
  0
LINE
  5
53BE4
  8
0
 62
     0
 10
-11.035410136677021
 20
5.1101463919001331
 30
0.0
 11
-11.035410136677021
 21
5.1101463919001331
 31
0.0
  0
LINE
  5
53BE5
  8
0
 62
     0
 10
-11.10170139741326
 20
5.0438551311638946
 30
0.0
 11
-11.10170139741326
 21
5.0438551311638946
 31
0.0
  0
LINE
  5
53BE6
  8
0
 62
     0
 10
-11.167992658149499
 20
4.977563870427657
 30
0.0
 11
-11.167992658149499
 21
4.977563870427657
 31
0.0
  0
LINE
  5
53BE7
  8
0
 62
     0
 10
-11.23428391888574
 20
4.9112726096914177
 30
0.0
 11
-11.23428391888574
 21
4.9112726096914177
 31
0.0
  0
LINE
  5
53BE8
  8
0
 62
     0
 10
-11.30057517962198
 20
4.8449813489551801
 30
0.0
 11
-11.30057517962198
 21
4.8449813489551801
 31
0.0
  0
LINE
  5
53BE9
  8
0
 62
     0
 10
-11.366866440358219
 20
4.7786900882189407
 30
0.0
 11
-11.366866440358219
 21
4.7786900882189407
 31
0.0
  0
LINE
  5
53BEA
  8
0
 62
     0
 10
-11.43315770109445
 20
4.7123988274827031
 30
0.0
 11
-11.43315770109445
 21
4.7123988274827031
 31
0.0
  0
LINE
  5
53BEB
  8
0
 62
     0
 10
-11.499448961830691
 20
4.6461075667464637
 30
0.0
 11
-11.499448961830691
 21
4.6461075667464637
 31
0.0
  0
LINE
  5
53BEC
  8
0
 62
     0
 10
-11.56574022256693
 20
4.5798163060102262
 30
0.0
 11
-11.56574022256693
 21
4.5798163060102262
 31
0.0
  0
LINE
  5
53BED
  8
0
 62
     0
 10
-11.632031483303169
 20
4.5135250452739868
 30
0.0
 11
-11.632031483303169
 21
4.5135250452739868
 31
0.0
  0
LINE
  5
53BEE
  8
0
 62
     0
 10
-11.698322744039411
 20
4.4472337845377492
 30
0.0
 11
-11.698322744039411
 21
4.4472337845377492
 31
0.0
  0
LINE
  5
53BEF
  8
0
 62
     0
 10
-11.76461400477565
 20
4.3809425238015098
 30
0.0
 11
-11.76461400477565
 21
4.3809425238015098
 31
0.0
  0
LINE
  5
53BF0
  8
0
 62
     0
 10
-11.830905265511889
 20
4.3146512630652722
 30
0.0
 11
-11.830905265511889
 21
4.3146512630652722
 31
0.0
  0
LINE
  5
53BF1
  8
0
 62
     0
 10
-11.897196526248131
 20
4.2483600023290329
 30
0.0
 11
-11.897196526248131
 21
4.2483600023290329
 31
0.0
  0
LINE
  5
53BF2
  8
0
 62
     0
 10
-11.96348778698437
 20
4.1820687415927953
 30
0.0
 11
-11.96348778698437
 21
4.1820687415927953
 31
0.0
  0
LINE
  5
53BF3
  8
0
 62
     0
 10
-12.029779047720609
 20
4.1157774808565559
 30
0.0
 11
-12.029779047720609
 21
4.1157774808565559
 31
0.0
  0
LINE
  5
53BF4
  8
0
 62
     0
 10
-12.09607030845685
 20
4.0494862201203183
 30
0.0
 11
-12.09607030845685
 21
4.0494862201203183
 31
0.0
  0
LINE
  5
53BF5
  8
0
 62
     0
 10
-12.16236156919309
 20
3.983194959384079
 30
0.0
 11
-12.16236156919309
 21
3.983194959384079
 31
0.0
  0
LINE
  5
53BF6
  8
0
 62
     0
 10
-12.228652829929329
 20
3.9169036986478409
 30
0.0
 11
-12.228652829929329
 21
3.9169036986478409
 31
0.0
  0
LINE
  5
53BF7
  8
0
 62
     0
 10
-12.29494409066557
 20
3.850612437911602
 30
0.0
 11
-12.29494409066557
 21
3.850612437911602
 31
0.0
  0
LINE
  5
53BF8
  8
0
 62
     0
 10
-12.36123535140181
 20
3.7843211771753631
 30
0.0
 11
-12.36123535140181
 21
3.7843211771753631
 31
0.0
  0
LINE
  5
53BF9
  8
0
 62
     0
 10
-12.427526612138051
 20
3.7180299164391242
 30
0.0
 11
-12.427526612138051
 21
3.7180299164391242
 31
0.0
  0
LINE
  5
53BFA
  8
0
 62
     0
 10
-12.493817872874279
 20
3.6517386557028848
 30
0.0
 11
-12.493817872874279
 21
3.6517386557028848
 31
0.0
  0
LINE
  5
53BFB
  8
0
 62
     0
 10
-12.560109133610521
 20
3.5854473949666459
 30
0.0
 11
-12.560109133610521
 21
3.5854473949666459
 31
0.0
  0
LINE
  5
53BFC
  8
0
 62
     0
 10
-12.62640039434676
 20
3.519156134230407
 30
0.0
 11
-12.62640039434676
 21
3.519156134230407
 31
0.0
  0
LINE
  5
53BFD
  8
0
 62
     0
 10
-12.692691655082999
 20
3.452864873494168
 30
0.0
 11
-12.692691655082999
 21
3.452864873494168
 31
0.0
  0
LINE
  5
53BFE
  8
0
 62
     0
 10
-12.75898291581924
 20
3.3865736127579291
 30
0.0
 11
-12.75898291581924
 21
3.3865736127579291
 31
0.0
  0
LINE
  5
53BFF
  8
0
 62
     0
 10
-12.82527417655548
 20
3.3202823520216902
 30
0.0
 11
-12.82527417655548
 21
3.3202823520216902
 31
0.0
  0
LINE
  5
53C00
  8
0
 62
     0
 10
-12.891565437291719
 20
3.2539910912854508
 30
0.0
 11
-12.891565437291719
 21
3.2539910912854508
 31
0.0
  0
LINE
  5
53C01
  8
0
 62
     0
 10
-11.002264506308901
 20
5.2758745437407306
 30
0.0
 11
-11.002264506308901
 21
5.2758745437407306
 31
0.0
  0
LINE
  5
53C02
  8
0
 62
     0
 10
-11.06855576704514
 20
5.209583283004493
 30
0.0
 11
-11.06855576704514
 21
5.209583283004493
 31
0.0
  0
LINE
  5
53C03
  8
0
 62
     0
 10
-11.13484702778138
 20
5.1432920222682537
 30
0.0
 11
-11.13484702778138
 21
5.1432920222682537
 31
0.0
  0
LINE
  5
53C04
  8
0
 62
     0
 10
-11.201138288517621
 20
5.0770007615320161
 30
0.0
 11
-11.201138288517621
 21
5.0770007615320161
 31
0.0
  0
LINE
  5
53C05
  8
0
 62
     0
 10
-11.26742954925386
 20
5.0107095007957767
 30
0.0
 11
-11.26742954925386
 21
5.0107095007957767
 31
0.0
  0
LINE
  5
53C06
  8
0
 62
     0
 10
-11.333720809990091
 20
4.9444182400595391
 30
0.0
 11
-11.333720809990091
 21
4.9444182400595391
 31
0.0
  0
LINE
  5
53C07
  8
0
 62
     0
 10
-11.40001207072633
 20
4.8781269793232998
 30
0.0
 11
-11.40001207072633
 21
4.8781269793232998
 31
0.0
  0
LINE
  5
53C08
  8
0
 62
     0
 10
-11.466303331462569
 20
4.8118357185870622
 30
0.0
 11
-11.466303331462569
 21
4.8118357185870622
 31
0.0
  0
LINE
  5
53C09
  8
0
 62
     0
 10
-11.53259459219881
 20
4.7455444578508228
 30
0.0
 11
-11.53259459219881
 21
4.7455444578508228
 31
0.0
  0
LINE
  5
53C0A
  8
0
 62
     0
 10
-11.59888585293505
 20
4.6792531971145852
 30
0.0
 11
-11.59888585293505
 21
4.6792531971145852
 31
0.0
  0
LINE
  5
53C0B
  8
0
 62
     0
 10
-11.665177113671289
 20
4.6129619363783458
 30
0.0
 11
-11.665177113671289
 21
4.6129619363783458
 31
0.0
  0
LINE
  5
53C0C
  8
0
 62
     0
 10
-11.73146837440753
 20
4.5466706756421083
 30
0.0
 11
-11.73146837440753
 21
4.5466706756421083
 31
0.0
  0
LINE
  5
53C0D
  8
0
 62
     0
 10
-11.79775963514377
 20
4.4803794149058689
 30
0.0
 11
-11.79775963514377
 21
4.4803794149058689
 31
0.0
  0
LINE
  5
53C0E
  8
0
 62
     0
 10
-11.864050895880011
 20
4.4140881541696313
 30
0.0
 11
-11.864050895880011
 21
4.4140881541696313
 31
0.0
  0
LINE
  5
53C0F
  8
0
 62
     0
 10
-11.93034215661625
 20
4.3477968934333919
 30
0.0
 11
-11.93034215661625
 21
4.3477968934333919
 31
0.0
  0
LINE
  5
53C10
  8
0
 62
     0
 10
-11.99663341735249
 20
4.2815056326971543
 30
0.0
 11
-11.99663341735249
 21
4.2815056326971543
 31
0.0
  0
LINE
  5
53C11
  8
0
 62
     0
 10
-12.062924678088731
 20
4.215214371960915
 30
0.0
 11
-12.062924678088731
 21
4.215214371960915
 31
0.0
  0
LINE
  5
53C12
  8
0
 62
     0
 10
-12.12921593882497
 20
4.1489231112246774
 30
0.0
 11
-12.12921593882497
 21
4.1489231112246774
 31
0.0
  0
LINE
  5
53C13
  8
0
 62
     0
 10
-12.195507199561209
 20
4.082631850488438
 30
0.0
 11
-12.195507199561209
 21
4.082631850488438
 31
0.0
  0
LINE
  5
53C14
  8
0
 62
     0
 10
-12.261798460297451
 20
4.0163405897522004
 30
0.0
 11
-12.261798460297451
 21
4.0163405897522004
 31
0.0
  0
LINE
  5
53C15
  8
0
 62
     0
 10
-12.32808972103369
 20
3.9500493290159611
 30
0.0
 11
-12.32808972103369
 21
3.9500493290159611
 31
0.0
  0
LINE
  5
53C16
  8
0
 62
     0
 10
-12.394380981769929
 20
3.8837580682797221
 30
0.0
 11
-12.394380981769929
 21
3.8837580682797221
 31
0.0
  0
LINE
  5
53C17
  8
0
 62
     0
 10
-12.46067224250617
 20
3.8174668075434832
 30
0.0
 11
-12.46067224250617
 21
3.8174668075434832
 31
0.0
  0
LINE
  5
53C18
  8
0
 62
     0
 10
-12.526963503242399
 20
3.7511755468072439
 30
0.0
 11
-12.526963503242399
 21
3.7511755468072439
 31
0.0
  0
LINE
  5
53C19
  8
0
 62
     0
 10
-12.59325476397864
 20
3.6848842860710049
 30
0.0
 11
-12.59325476397864
 21
3.6848842860710049
 31
0.0
  0
LINE
  5
53C1A
  8
0
 62
     0
 10
-12.65954602471488
 20
3.618593025334766
 30
0.0
 11
-12.65954602471488
 21
3.618593025334766
 31
0.0
  0
LINE
  5
53C1B
  8
0
 62
     0
 10
-12.725837285451121
 20
3.5523017645985271
 30
0.0
 11
-12.725837285451121
 21
3.5523017645985271
 31
0.0
  0
LINE
  5
53C1C
  8
0
 62
     0
 10
-12.79212854618736
 20
3.4860105038622891
 30
0.0
 11
-12.79212854618736
 21
3.4860105038622891
 31
0.0
  0
LINE
  5
53C1D
  8
0
 62
     0
 10
-12.8584198069236
 20
3.4197192431260501
 30
0.0
 11
-12.8584198069236
 21
3.4197192431260501
 31
0.0
  0
LINE
  5
53C1E
  8
0
 62
     0
 10
-11.035410136677021
 20
5.3753114348450914
 30
0.0
 11
-11.035410136677021
 21
5.3753114348450914
 31
0.0
  0
LINE
  5
53C1F
  8
0
 62
     0
 10
-11.10170139741326
 20
5.3090201741088521
 30
0.0
 11
-11.10170139741326
 21
5.3090201741088521
 31
0.0
  0
LINE
  5
53C20
  8
0
 62
     0
 10
-11.16799265814949
 20
5.2427289133726136
 30
0.0
 11
-11.16799265814949
 21
5.2427289133726136
 31
0.0
  0
LINE
  5
53C21
  8
0
 62
     0
 10
-11.23428391888573
 20
5.176437652636376
 30
0.0
 11
-11.23428391888573
 21
5.176437652636376
 31
0.0
  0
LINE
  5
53C22
  8
0
 62
     0
 10
-11.300575179621969
 20
5.1101463919001366
 30
0.0
 11
-11.300575179621969
 21
5.1101463919001366
 31
0.0
  0
LINE
  5
53C23
  8
0
 62
     0
 10
-11.36686644035821
 20
5.0438551311638991
 30
0.0
 11
-11.36686644035821
 21
5.0438551311638991
 31
0.0
  0
LINE
  5
53C24
  8
0
 62
     0
 10
-11.43315770109445
 20
4.9775638704276597
 30
0.0
 11
-11.43315770109445
 21
4.9775638704276597
 31
0.0
  0
LINE
  5
53C25
  8
0
 62
     0
 10
-11.499448961830691
 20
4.9112726096914221
 30
0.0
 11
-11.499448961830691
 21
4.9112726096914221
 31
0.0
  0
LINE
  5
53C26
  8
0
 62
     0
 10
-11.56574022256693
 20
4.8449813489551827
 30
0.0
 11
-11.56574022256693
 21
4.8449813489551827
 31
0.0
  0
LINE
  5
53C27
  8
0
 62
     0
 10
-11.632031483303169
 20
4.7786900882189451
 30
0.0
 11
-11.632031483303169
 21
4.7786900882189451
 31
0.0
  0
LINE
  5
53C28
  8
0
 62
     0
 10
-11.698322744039411
 20
4.7123988274827058
 30
0.0
 11
-11.698322744039411
 21
4.7123988274827058
 31
0.0
  0
LINE
  5
53C29
  8
0
 62
     0
 10
-11.76461400477565
 20
4.6461075667464682
 30
0.0
 11
-11.76461400477565
 21
4.6461075667464682
 31
0.0
  0
LINE
  5
53C2A
  8
0
 62
     0
 10
-11.830905265511889
 20
4.5798163060102288
 30
0.0
 11
-11.830905265511889
 21
4.5798163060102288
 31
0.0
  0
LINE
  5
53C2B
  8
0
 62
     0
 10
-11.897196526248131
 20
4.5135250452739912
 30
0.0
 11
-11.897196526248131
 21
4.5135250452739912
 31
0.0
  0
LINE
  5
53C2C
  8
0
 62
     0
 10
-11.96348778698437
 20
4.4472337845377519
 30
0.0
 11
-11.96348778698437
 21
4.4472337845377519
 31
0.0
  0
LINE
  5
53C2D
  8
0
 62
     0
 10
-12.029779047720609
 20
4.3809425238015143
 30
0.0
 11
-12.029779047720609
 21
4.3809425238015143
 31
0.0
  0
LINE
  5
53C2E
  8
0
 62
     0
 10
-12.09607030845685
 20
4.3146512630652749
 30
0.0
 11
-12.09607030845685
 21
4.3146512630652749
 31
0.0
  0
LINE
  5
53C2F
  8
0
 62
     0
 10
-12.16236156919309
 20
4.2483600023290373
 30
0.0
 11
-12.16236156919309
 21
4.2483600023290373
 31
0.0
  0
LINE
  5
53C30
  8
0
 62
     0
 10
-12.22865282992932
 20
4.182068741592798
 30
0.0
 11
-12.22865282992932
 21
4.182068741592798
 31
0.0
  0
LINE
  5
53C31
  8
0
 62
     0
 10
-12.29494409066556
 20
4.1157774808565604
 30
0.0
 11
-12.29494409066556
 21
4.1157774808565604
 31
0.0
  0
LINE
  5
53C32
  8
0
 62
     0
 10
-12.361235351401801
 20
4.049486220120321
 30
0.0
 11
-12.361235351401801
 21
4.049486220120321
 31
0.0
  0
LINE
  5
53C33
  8
0
 62
     0
 10
-12.42752661213804
 20
3.983194959384083
 30
0.0
 11
-12.42752661213804
 21
3.983194959384083
 31
0.0
  0
LINE
  5
53C34
  8
0
 62
     0
 10
-12.493817872874279
 20
3.916903698647844
 30
0.0
 11
-12.493817872874279
 21
3.916903698647844
 31
0.0
  0
LINE
  5
53C35
  8
0
 62
     0
 10
-12.560109133610521
 20
3.8506124379116051
 30
0.0
 11
-12.560109133610521
 21
3.8506124379116051
 31
0.0
  0
LINE
  5
53C36
  8
0
 62
     0
 10
-12.62640039434676
 20
3.7843211771753662
 30
0.0
 11
-12.62640039434676
 21
3.7843211771753662
 31
0.0
  0
LINE
  5
53C37
  8
0
 62
     0
 10
-12.692691655082999
 20
3.7180299164391268
 30
0.0
 11
-12.692691655082999
 21
3.7180299164391268
 31
0.0
  0
LINE
  5
53C38
  8
0
 62
     0
 10
-12.75898291581924
 20
3.6517386557028879
 30
0.0
 11
-12.75898291581924
 21
3.6517386557028879
 31
0.0
  0
LINE
  5
53C39
  8
0
 62
     0
 10
-12.82527417655548
 20
3.585447394966649
 30
0.0
 11
-12.82527417655548
 21
3.585447394966649
 31
0.0
  0
LINE
  5
53C3A
  8
0
 62
     0
 10
-12.891565437291719
 20
3.5191561342304101
 30
0.0
 11
-12.891565437291719
 21
3.5191561342304101
 31
0.0
  0
LINE
  5
53C3B
  8
0
 62
     0
 10
-11.002264506308901
 20
5.5410395866856881
 30
0.0
 11
-11.002264506308901
 21
5.5410395866856881
 31
0.0
  0
LINE
  5
53C3C
  8
0
 62
     0
 10
-11.06855576704514
 20
5.4747483259494487
 30
0.0
 11
-11.06855576704514
 21
5.4747483259494487
 31
0.0
  0
LINE
  5
53C3D
  8
0
 62
     0
 10
-11.13484702778138
 20
5.4084570652132111
 30
0.0
 11
-11.13484702778138
 21
5.4084570652132111
 31
0.0
  0
LINE
  5
53C3E
  8
0
 62
     0
 10
-11.201138288517621
 20
5.3421658044769718
 30
0.0
 11
-11.201138288517621
 21
5.3421658044769718
 31
0.0
  0
LINE
  5
53C3F
  8
0
 62
     0
 10
-11.26742954925386
 20
5.2758745437407342
 30
0.0
 11
-11.26742954925386
 21
5.2758745437407342
 31
0.0
  0
LINE
  5
53C40
  8
0
 62
     0
 10
-11.333720809990091
 20
5.2095832830044948
 30
0.0
 11
-11.333720809990091
 21
5.2095832830044948
 31
0.0
  0
LINE
  5
53C41
  8
0
 62
     0
 10
-11.40001207072633
 20
5.1432920222682572
 30
0.0
 11
-11.40001207072633
 21
5.1432920222682572
 31
0.0
  0
LINE
  5
53C42
  8
0
 62
     0
 10
-11.466303331462569
 20
5.0770007615320178
 30
0.0
 11
-11.466303331462569
 21
5.0770007615320178
 31
0.0
  0
LINE
  5
53C43
  8
0
 62
     0
 10
-11.53259459219881
 20
5.0107095007957803
 30
0.0
 11
-11.53259459219881
 21
5.0107095007957803
 31
0.0
  0
LINE
  5
53C44
  8
0
 62
     0
 10
-11.59888585293505
 20
4.9444182400595409
 30
0.0
 11
-11.59888585293505
 21
4.9444182400595409
 31
0.0
  0
LINE
  5
53C45
  8
0
 62
     0
 10
-11.665177113671289
 20
4.8781269793233033
 30
0.0
 11
-11.665177113671289
 21
4.8781269793233033
 31
0.0
  0
LINE
  5
53C46
  8
0
 62
     0
 10
-11.73146837440753
 20
4.8118357185870639
 30
0.0
 11
-11.73146837440753
 21
4.8118357185870639
 31
0.0
  0
LINE
  5
53C47
  8
0
 62
     0
 10
-11.79775963514377
 20
4.7455444578508263
 30
0.0
 11
-11.79775963514377
 21
4.7455444578508263
 31
0.0
  0
LINE
  5
53C48
  8
0
 62
     0
 10
-11.864050895880011
 20
4.679253197114587
 30
0.0
 11
-11.864050895880011
 21
4.679253197114587
 31
0.0
  0
LINE
  5
53C49
  8
0
 62
     0
 10
-11.93034215661625
 20
4.6129619363783494
 30
0.0
 11
-11.93034215661625
 21
4.6129619363783494
 31
0.0
  0
LINE
  5
53C4A
  8
0
 62
     0
 10
-11.99663341735249
 20
4.54667067564211
 30
0.0
 11
-11.99663341735249
 21
4.54667067564211
 31
0.0
  0
LINE
  5
53C4B
  8
0
 62
     0
 10
-12.062924678088731
 20
4.4803794149058724
 30
0.0
 11
-12.062924678088731
 21
4.4803794149058724
 31
0.0
  0
LINE
  5
53C4C
  8
0
 62
     0
 10
-12.12921593882497
 20
4.4140881541696331
 30
0.0
 11
-12.12921593882497
 21
4.4140881541696331
 31
0.0
  0
LINE
  5
53C4D
  8
0
 62
     0
 10
-12.195507199561209
 20
4.3477968934333946
 30
0.0
 11
-12.195507199561209
 21
4.3477968934333946
 31
0.0
  0
LINE
  5
53C4E
  8
0
 62
     0
 10
-12.261798460297451
 20
4.281505632697157
 30
0.0
 11
-12.261798460297451
 21
4.281505632697157
 31
0.0
  0
LINE
  5
53C4F
  8
0
 62
     0
 10
-12.32808972103369
 20
4.2152143719609176
 30
0.0
 11
-12.32808972103369
 21
4.2152143719609176
 31
0.0
  0
LINE
  5
53C50
  8
0
 62
     0
 10
-12.39438098176992
 20
4.14892311122468
 30
0.0
 11
-12.39438098176992
 21
4.14892311122468
 31
0.0
  0
LINE
  5
53C51
  8
0
 62
     0
 10
-12.46067224250616
 20
4.0826318504884407
 30
0.0
 11
-12.46067224250616
 21
4.0826318504884407
 31
0.0
  0
LINE
  5
53C52
  8
0
 62
     0
 10
-12.526963503242399
 20
4.0163405897522031
 30
0.0
 11
-12.526963503242399
 21
4.0163405897522031
 31
0.0
  0
LINE
  5
53C53
  8
0
 62
     0
 10
-12.59325476397864
 20
3.9500493290159642
 30
0.0
 11
-12.59325476397864
 21
3.9500493290159642
 31
0.0
  0
LINE
  5
53C54
  8
0
 62
     0
 10
-12.65954602471488
 20
3.8837580682797248
 30
0.0
 11
-12.65954602471488
 21
3.8837580682797248
 31
0.0
  0
LINE
  5
53C55
  8
0
 62
     0
 10
-12.725837285451121
 20
3.8174668075434859
 30
0.0
 11
-12.725837285451121
 21
3.8174668075434859
 31
0.0
  0
LINE
  5
53C56
  8
0
 62
     0
 10
-12.79212854618736
 20
3.751175546807247
 30
0.0
 11
-12.79212854618736
 21
3.751175546807247
 31
0.0
  0
LINE
  5
53C57
  8
0
 62
     0
 10
-12.8584198069236
 20
3.684884286071008
 30
0.0
 11
-12.8584198069236
 21
3.684884286071008
 31
0.0
  0
LINE
  5
53C58
  8
0
 62
     0
 10
-11.035410136677021
 20
5.6404764777900409
 30
0.0
 11
-11.035410136677021
 21
5.6404764777900409
 31
0.0
  0
LINE
  5
53C59
  8
0
 62
     0
 10
-11.10170139741326
 20
5.5741852170538033
 30
0.0
 11
-11.10170139741326
 21
5.5741852170538033
 31
0.0
  0
LINE
  5
53C5A
  8
0
 62
     0
 10
-11.167992658149499
 20
5.507893956317564
 30
0.0
 11
-11.167992658149499
 21
5.507893956317564
 31
0.0
  0
LINE
  5
53C5B
  8
0
 62
     0
 10
-11.23428391888574
 20
5.4416026955813264
 30
0.0
 11
-11.23428391888574
 21
5.4416026955813264
 31
0.0
  0
LINE
  5
53C5C
  8
0
 62
     0
 10
-11.30057517962198
 20
5.375311434845087
 30
0.0
 11
-11.30057517962198
 21
5.375311434845087
 31
0.0
  0
LINE
  5
53C5D
  8
0
 62
     0
 10
-11.366866440358219
 20
5.3090201741088494
 30
0.0
 11
-11.366866440358219
 21
5.3090201741088494
 31
0.0
  0
LINE
  5
53C5E
  8
0
 62
     0
 10
-11.43315770109445
 20
5.24272891337261
 30
0.0
 11
-11.43315770109445
 21
5.24272891337261
 31
0.0
  0
LINE
  5
53C5F
  8
0
 62
     0
 10
-11.499448961830691
 20
5.1764376526363716
 30
0.0
 11
-11.499448961830691
 21
5.1764376526363716
 31
0.0
  0
LINE
  5
53C60
  8
0
 62
     0
 10
-11.56574022256693
 20
5.1101463919001331
 30
0.0
 11
-11.56574022256693
 21
5.1101463919001331
 31
0.0
  0
LINE
  5
53C61
  8
0
 62
     0
 10
-11.632031483303169
 20
5.0438551311638946
 30
0.0
 11
-11.632031483303169
 21
5.0438551311638946
 31
0.0
  0
LINE
  5
53C62
  8
0
 62
     0
 10
-11.698322744039411
 20
4.977563870427657
 30
0.0
 11
-11.698322744039411
 21
4.977563870427657
 31
0.0
  0
LINE
  5
53C63
  8
0
 62
     0
 10
-11.76461400477565
 20
4.9112726096914177
 30
0.0
 11
-11.76461400477565
 21
4.9112726096914177
 31
0.0
  0
LINE
  5
53C64
  8
0
 62
     0
 10
-11.830905265511889
 20
4.8449813489551801
 30
0.0
 11
-11.830905265511889
 21
4.8449813489551801
 31
0.0
  0
LINE
  5
53C65
  8
0
 62
     0
 10
-11.897196526248131
 20
4.7786900882189407
 30
0.0
 11
-11.897196526248131
 21
4.7786900882189407
 31
0.0
  0
LINE
  5
53C66
  8
0
 62
     0
 10
-11.96348778698437
 20
4.7123988274827031
 30
0.0
 11
-11.96348778698437
 21
4.7123988274827031
 31
0.0
  0
LINE
  5
53C67
  8
0
 62
     0
 10
-12.029779047720609
 20
4.6461075667464637
 30
0.0
 11
-12.029779047720609
 21
4.6461075667464637
 31
0.0
  0
LINE
  5
53C68
  8
0
 62
     0
 10
-12.09607030845685
 20
4.5798163060102262
 30
0.0
 11
-12.09607030845685
 21
4.5798163060102262
 31
0.0
  0
LINE
  5
53C69
  8
0
 62
     0
 10
-12.16236156919309
 20
4.5135250452739868
 30
0.0
 11
-12.16236156919309
 21
4.5135250452739868
 31
0.0
  0
LINE
  5
53C6A
  8
0
 62
     0
 10
-12.228652829929329
 20
4.4472337845377492
 30
0.0
 11
-12.228652829929329
 21
4.4472337845377492
 31
0.0
  0
LINE
  5
53C6B
  8
0
 62
     0
 10
-12.29494409066557
 20
4.3809425238015098
 30
0.0
 11
-12.29494409066557
 21
4.3809425238015098
 31
0.0
  0
LINE
  5
53C6C
  8
0
 62
     0
 10
-12.36123535140181
 20
4.3146512630652722
 30
0.0
 11
-12.36123535140181
 21
4.3146512630652722
 31
0.0
  0
LINE
  5
53C6D
  8
0
 62
     0
 10
-12.427526612138051
 20
4.2483600023290329
 30
0.0
 11
-12.427526612138051
 21
4.2483600023290329
 31
0.0
  0
LINE
  5
53C6E
  8
0
 62
     0
 10
-12.493817872874279
 20
4.1820687415927953
 30
0.0
 11
-12.493817872874279
 21
4.1820687415927953
 31
0.0
  0
LINE
  5
53C6F
  8
0
 62
     0
 10
-12.560109133610521
 20
4.1157774808565559
 30
0.0
 11
-12.560109133610521
 21
4.1157774808565559
 31
0.0
  0
LINE
  5
53C70
  8
0
 62
     0
 10
-12.62640039434676
 20
4.0494862201203183
 30
0.0
 11
-12.62640039434676
 21
4.0494862201203183
 31
0.0
  0
LINE
  5
53C71
  8
0
 62
     0
 10
-12.692691655082999
 20
3.983194959384079
 30
0.0
 11
-12.692691655082999
 21
3.983194959384079
 31
0.0
  0
LINE
  5
53C72
  8
0
 62
     0
 10
-12.75898291581924
 20
3.9169036986478409
 30
0.0
 11
-12.75898291581924
 21
3.9169036986478409
 31
0.0
  0
LINE
  5
53C73
  8
0
 62
     0
 10
-12.82527417655548
 20
3.850612437911602
 30
0.0
 11
-12.82527417655548
 21
3.850612437911602
 31
0.0
  0
LINE
  5
53C74
  8
0
 62
     0
 10
-12.891565437291719
 20
3.7843211771753631
 30
0.0
 11
-12.891565437291719
 21
3.7843211771753631
 31
0.0
  0
LINE
  5
53C75
  8
0
 62
     0
 10
-11.002264506308901
 20
5.8062046296306393
 30
0.0
 11
-11.002264506308901
 21
5.8062046296306393
 31
0.0
  0
LINE
  5
53C76
  8
0
 62
     0
 10
-11.06855576704514
 20
5.7399133688944
 30
0.0
 11
-11.06855576704514
 21
5.7399133688944
 31
0.0
  0
LINE
  5
53C77
  8
0
 62
     0
 10
-11.13484702778138
 20
5.6736221081581624
 30
0.0
 11
-11.13484702778138
 21
5.6736221081581624
 31
0.0
  0
LINE
  5
53C78
  8
0
 62
     0
 10
-11.201138288517621
 20
5.607330847421923
 30
0.0
 11
-11.201138288517621
 21
5.607330847421923
 31
0.0
  0
LINE
  5
53C79
  8
0
 62
     0
 10
-11.26742954925386
 20
5.5410395866856854
 30
0.0
 11
-11.26742954925386
 21
5.5410395866856854
 31
0.0
  0
LINE
  5
53C7A
  8
0
 62
     0
 10
-11.333720809990091
 20
5.474748325949446
 30
0.0
 11
-11.333720809990091
 21
5.474748325949446
 31
0.0
  0
LINE
  5
53C7B
  8
0
 62
     0
 10
-11.40001207072633
 20
5.4084570652132076
 30
0.0
 11
-11.40001207072633
 21
5.4084570652132076
 31
0.0
  0
LINE
  5
53C7C
  8
0
 62
     0
 10
-11.466303331462569
 20
5.3421658044769691
 30
0.0
 11
-11.466303331462569
 21
5.3421658044769691
 31
0.0
  0
LINE
  5
53C7D
  8
0
 62
     0
 10
-11.53259459219881
 20
5.2758745437407306
 30
0.0
 11
-11.53259459219881
 21
5.2758745437407306
 31
0.0
  0
LINE
  5
53C7E
  8
0
 62
     0
 10
-11.59888585293505
 20
5.209583283004493
 30
0.0
 11
-11.59888585293505
 21
5.209583283004493
 31
0.0
  0
LINE
  5
53C7F
  8
0
 62
     0
 10
-11.665177113671289
 20
5.1432920222682537
 30
0.0
 11
-11.665177113671289
 21
5.1432920222682537
 31
0.0
  0
LINE
  5
53C80
  8
0
 62
     0
 10
-11.73146837440753
 20
5.0770007615320161
 30
0.0
 11
-11.73146837440753
 21
5.0770007615320161
 31
0.0
  0
LINE
  5
53C81
  8
0
 62
     0
 10
-11.79775963514377
 20
5.0107095007957767
 30
0.0
 11
-11.79775963514377
 21
5.0107095007957767
 31
0.0
  0
LINE
  5
53C82
  8
0
 62
     0
 10
-11.864050895880011
 20
4.9444182400595391
 30
0.0
 11
-11.864050895880011
 21
4.9444182400595391
 31
0.0
  0
LINE
  5
53C83
  8
0
 62
     0
 10
-11.93034215661625
 20
4.8781269793232998
 30
0.0
 11
-11.93034215661625
 21
4.8781269793232998
 31
0.0
  0
LINE
  5
53C84
  8
0
 62
     0
 10
-11.99663341735249
 20
4.8118357185870622
 30
0.0
 11
-11.99663341735249
 21
4.8118357185870622
 31
0.0
  0
LINE
  5
53C85
  8
0
 62
     0
 10
-12.062924678088731
 20
4.7455444578508228
 30
0.0
 11
-12.062924678088731
 21
4.7455444578508228
 31
0.0
  0
LINE
  5
53C86
  8
0
 62
     0
 10
-12.12921593882497
 20
4.6792531971145852
 30
0.0
 11
-12.12921593882497
 21
4.6792531971145852
 31
0.0
  0
LINE
  5
53C87
  8
0
 62
     0
 10
-12.195507199561209
 20
4.6129619363783458
 30
0.0
 11
-12.195507199561209
 21
4.6129619363783458
 31
0.0
  0
LINE
  5
53C88
  8
0
 62
     0
 10
-12.261798460297451
 20
4.5466706756421083
 30
0.0
 11
-12.261798460297451
 21
4.5466706756421083
 31
0.0
  0
LINE
  5
53C89
  8
0
 62
     0
 10
-12.32808972103369
 20
4.4803794149058689
 30
0.0
 11
-12.32808972103369
 21
4.4803794149058689
 31
0.0
  0
LINE
  5
53C8A
  8
0
 62
     0
 10
-12.394380981769929
 20
4.4140881541696313
 30
0.0
 11
-12.394380981769929
 21
4.4140881541696313
 31
0.0
  0
LINE
  5
53C8B
  8
0
 62
     0
 10
-12.46067224250617
 20
4.3477968934333919
 30
0.0
 11
-12.46067224250617
 21
4.3477968934333919
 31
0.0
  0
LINE
  5
53C8C
  8
0
 62
     0
 10
-12.526963503242399
 20
4.2815056326971543
 30
0.0
 11
-12.526963503242399
 21
4.2815056326971543
 31
0.0
  0
LINE
  5
53C8D
  8
0
 62
     0
 10
-12.59325476397864
 20
4.215214371960915
 30
0.0
 11
-12.59325476397864
 21
4.215214371960915
 31
0.0
  0
LINE
  5
53C8E
  8
0
 62
     0
 10
-12.65954602471488
 20
4.1489231112246774
 30
0.0
 11
-12.65954602471488
 21
4.1489231112246774
 31
0.0
  0
LINE
  5
53C8F
  8
0
 62
     0
 10
-12.725837285451121
 20
4.082631850488438
 30
0.0
 11
-12.725837285451121
 21
4.082631850488438
 31
0.0
  0
LINE
  5
53C90
  8
0
 62
     0
 10
-12.79212854618736
 20
4.0163405897522004
 30
0.0
 11
-12.79212854618736
 21
4.0163405897522004
 31
0.0
  0
LINE
  5
53C91
  8
0
 62
     0
 10
-12.8584198069236
 20
3.9500493290159611
 30
0.0
 11
-12.8584198069236
 21
3.9500493290159611
 31
0.0
  0
LINE
  5
53C92
  8
0
 62
     0
 10
-11.035410136677021
 20
5.9056415207349984
 30
0.0
 11
-11.035410136677021
 21
5.9056415207349984
 31
0.0
  0
LINE
  5
53C93
  8
0
 62
     0
 10
-11.10170139741326
 20
5.839350259998759
 30
0.0
 11
-11.10170139741326
 21
5.839350259998759
 31
0.0
  0
LINE
  5
53C94
  8
0
 62
     0
 10
-11.167992658149499
 20
5.7730589992625214
 30
0.0
 11
-11.167992658149499
 21
5.7730589992625214
 31
0.0
  0
LINE
  5
53C95
  8
0
 62
     0
 10
-11.23428391888574
 20
5.7067677385262821
 30
0.0
 11
-11.23428391888574
 21
5.7067677385262821
 31
0.0
  0
LINE
  5
53C96
  8
0
 62
     0
 10
-11.30057517962198
 20
5.6404764777900436
 30
0.0
 11
-11.30057517962198
 21
5.6404764777900436
 31
0.0
  0
LINE
  5
53C97
  8
0
 62
     0
 10
-11.366866440358219
 20
5.5741852170538051
 30
0.0
 11
-11.366866440358219
 21
5.5741852170538051
 31
0.0
  0
LINE
  5
53C98
  8
0
 62
     0
 10
-11.43315770109445
 20
5.5078939563175666
 30
0.0
 11
-11.43315770109445
 21
5.5078939563175666
 31
0.0
  0
LINE
  5
53C99
  8
0
 62
     0
 10
-11.499448961830691
 20
5.441602695581329
 30
0.0
 11
-11.499448961830691
 21
5.441602695581329
 31
0.0
  0
LINE
  5
53C9A
  8
0
 62
     0
 10
-11.56574022256693
 20
5.3753114348450897
 30
0.0
 11
-11.56574022256693
 21
5.3753114348450897
 31
0.0
  0
LINE
  5
53C9B
  8
0
 62
     0
 10
-11.632031483303169
 20
5.3090201741088521
 30
0.0
 11
-11.632031483303169
 21
5.3090201741088521
 31
0.0
  0
LINE
  5
53C9C
  8
0
 62
     0
 10
-11.698322744039411
 20
5.2427289133726127
 30
0.0
 11
-11.698322744039411
 21
5.2427289133726127
 31
0.0
  0
LINE
  5
53C9D
  8
0
 62
     0
 10
-11.76461400477565
 20
5.1764376526363751
 30
0.0
 11
-11.76461400477565
 21
5.1764376526363751
 31
0.0
  0
LINE
  5
53C9E
  8
0
 62
     0
 10
-11.830905265511889
 20
5.1101463919001358
 30
0.0
 11
-11.830905265511889
 21
5.1101463919001358
 31
0.0
  0
LINE
  5
53C9F
  8
0
 62
     0
 10
-11.897196526248131
 20
5.0438551311638982
 30
0.0
 11
-11.897196526248131
 21
5.0438551311638982
 31
0.0
  0
LINE
  5
53CA0
  8
0
 62
     0
 10
-11.96348778698437
 20
4.9775638704276588
 30
0.0
 11
-11.96348778698437
 21
4.9775638704276588
 31
0.0
  0
LINE
  5
53CA1
  8
0
 62
     0
 10
-12.029779047720609
 20
4.9112726096914212
 30
0.0
 11
-12.029779047720609
 21
4.9112726096914212
 31
0.0
  0
LINE
  5
53CA2
  8
0
 62
     0
 10
-12.09607030845685
 20
4.8449813489551818
 30
0.0
 11
-12.09607030845685
 21
4.8449813489551818
 31
0.0
  0
LINE
  5
53CA3
  8
0
 62
     0
 10
-12.16236156919309
 20
4.7786900882189443
 30
0.0
 11
-12.16236156919309
 21
4.7786900882189443
 31
0.0
  0
LINE
  5
53CA4
  8
0
 62
     0
 10
-12.228652829929329
 20
4.7123988274827049
 30
0.0
 11
-12.228652829929329
 21
4.7123988274827049
 31
0.0
  0
LINE
  5
53CA5
  8
0
 62
     0
 10
-12.29494409066557
 20
4.6461075667464673
 30
0.0
 11
-12.29494409066557
 21
4.6461075667464673
 31
0.0
  0
LINE
  5
53CA6
  8
0
 62
     0
 10
-12.36123535140181
 20
4.5798163060102279
 30
0.0
 11
-12.36123535140181
 21
4.5798163060102279
 31
0.0
  0
LINE
  5
53CA7
  8
0
 62
     0
 10
-12.427526612138051
 20
4.5135250452739903
 30
0.0
 11
-12.427526612138051
 21
4.5135250452739903
 31
0.0
  0
LINE
  5
53CA8
  8
0
 62
     0
 10
-12.493817872874279
 20
4.447233784537751
 30
0.0
 11
-12.493817872874279
 21
4.447233784537751
 31
0.0
  0
LINE
  5
53CA9
  8
0
 62
     0
 10
-12.560109133610521
 20
4.3809425238015134
 30
0.0
 11
-12.560109133610521
 21
4.3809425238015134
 31
0.0
  0
LINE
  5
53CAA
  8
0
 62
     0
 10
-12.62640039434676
 20
4.314651263065274
 30
0.0
 11
-12.62640039434676
 21
4.314651263065274
 31
0.0
  0
LINE
  5
53CAB
  8
0
 62
     0
 10
-12.692691655082999
 20
4.2483600023290364
 30
0.0
 11
-12.692691655082999
 21
4.2483600023290364
 31
0.0
  0
LINE
  5
53CAC
  8
0
 62
     0
 10
-12.75898291581924
 20
4.1820687415927971
 30
0.0
 11
-12.75898291581924
 21
4.1820687415927971
 31
0.0
  0
LINE
  5
53CAD
  8
0
 62
     0
 10
-12.82527417655548
 20
4.1157774808565586
 30
0.0
 11
-12.82527417655548
 21
4.1157774808565586
 31
0.0
  0
LINE
  5
53CAE
  8
0
 62
     0
 10
-12.891565437291719
 20
4.049486220120321
 30
0.0
 11
-12.891565437291719
 21
4.049486220120321
 31
0.0
  0
LINE
  5
53CAF
  8
0
 62
     0
 10
-11.002264506308901
 20
6.0713696725755923
 30
0.0
 11
-11.002264506308901
 21
6.0713696725755923
 31
0.0
  0
LINE
  5
53CB0
  8
0
 62
     0
 10
-11.06855576704514
 20
6.005078411839353
 30
0.0
 11
-11.06855576704514
 21
6.005078411839353
 31
0.0
  0
LINE
  5
53CB1
  8
0
 62
     0
 10
-11.13484702778138
 20
5.9387871511031154
 30
0.0
 11
-11.13484702778138
 21
5.9387871511031154
 31
0.0
  0
LINE
  5
53CB2
  8
0
 62
     0
 10
-11.201138288517621
 20
5.872495890366876
 30
0.0
 11
-11.201138288517621
 21
5.872495890366876
 31
0.0
  0
LINE
  5
53CB3
  8
0
 62
     0
 10
-11.26742954925386
 20
5.8062046296306384
 30
0.0
 11
-11.26742954925386
 21
5.8062046296306384
 31
0.0
  0
LINE
  5
53CB4
  8
0
 62
     0
 10
-11.333720809990091
 20
5.7399133688943991
 30
0.0
 11
-11.333720809990091
 21
5.7399133688943991
 31
0.0
  0
LINE
  5
53CB5
  8
0
 62
     0
 10
-11.40001207072633
 20
5.6736221081581606
 30
0.0
 11
-11.40001207072633
 21
5.6736221081581606
 31
0.0
  0
LINE
  5
53CB6
  8
0
 62
     0
 10
-11.466303331462569
 20
5.607330847421923
 30
0.0
 11
-11.466303331462569
 21
5.607330847421923
 31
0.0
  0
LINE
  5
53CB7
  8
0
 62
     0
 10
-11.53259459219881
 20
5.5410395866856836
 30
0.0
 11
-11.53259459219881
 21
5.5410395866856836
 31
0.0
  0
LINE
  5
53CB8
  8
0
 62
     0
 10
-11.59888585293505
 20
5.474748325949446
 30
0.0
 11
-11.59888585293505
 21
5.474748325949446
 31
0.0
  0
LINE
  5
53CB9
  8
0
 62
     0
 10
-11.665177113671289
 20
5.4084570652132067
 30
0.0
 11
-11.665177113671289
 21
5.4084570652132067
 31
0.0
  0
LINE
  5
53CBA
  8
0
 62
     0
 10
-11.73146837440753
 20
5.3421658044769691
 30
0.0
 11
-11.73146837440753
 21
5.3421658044769691
 31
0.0
  0
LINE
  5
53CBB
  8
0
 62
     0
 10
-11.79775963514377
 20
5.2758745437407297
 30
0.0
 11
-11.79775963514377
 21
5.2758745437407297
 31
0.0
  0
LINE
  5
53CBC
  8
0
 62
     0
 10
-11.864050895880011
 20
5.2095832830044921
 30
0.0
 11
-11.864050895880011
 21
5.2095832830044921
 31
0.0
  0
LINE
  5
53CBD
  8
0
 62
     0
 10
-11.93034215661625
 20
5.1432920222682528
 30
0.0
 11
-11.93034215661625
 21
5.1432920222682528
 31
0.0
  0
LINE
  5
53CBE
  8
0
 62
     0
 10
-11.99663341735249
 20
5.0770007615320152
 30
0.0
 11
-11.99663341735249
 21
5.0770007615320152
 31
0.0
  0
LINE
  5
53CBF
  8
0
 62
     0
 10
-12.062924678088731
 20
5.0107095007957758
 30
0.0
 11
-12.062924678088731
 21
5.0107095007957758
 31
0.0
  0
LINE
  5
53CC0
  8
0
 62
     0
 10
-12.12921593882497
 20
4.9444182400595382
 30
0.0
 11
-12.12921593882497
 21
4.9444182400595382
 31
0.0
  0
LINE
  5
53CC1
  8
0
 62
     0
 10
-12.195507199561209
 20
4.8781269793232989
 30
0.0
 11
-12.195507199561209
 21
4.8781269793232989
 31
0.0
  0
LINE
  5
53CC2
  8
0
 62
     0
 10
-12.261798460297451
 20
4.8118357185870613
 30
0.0
 11
-12.261798460297451
 21
4.8118357185870613
 31
0.0
  0
LINE
  5
53CC3
  8
0
 62
     0
 10
-12.32808972103369
 20
4.7455444578508219
 30
0.0
 11
-12.32808972103369
 21
4.7455444578508219
 31
0.0
  0
LINE
  5
53CC4
  8
0
 62
     0
 10
-12.394380981769929
 20
4.6792531971145843
 30
0.0
 11
-12.394380981769929
 21
4.6792531971145843
 31
0.0
  0
LINE
  5
53CC5
  8
0
 62
     0
 10
-12.46067224250617
 20
4.612961936378345
 30
0.0
 11
-12.46067224250617
 21
4.612961936378345
 31
0.0
  0
LINE
  5
53CC6
  8
0
 62
     0
 10
-12.526963503242399
 20
4.5466706756421074
 30
0.0
 11
-12.526963503242399
 21
4.5466706756421074
 31
0.0
  0
LINE
  5
53CC7
  8
0
 62
     0
 10
-12.59325476397864
 20
4.480379414905868
 30
0.0
 11
-12.59325476397864
 21
4.480379414905868
 31
0.0
  0
LINE
  5
53CC8
  8
0
 62
     0
 10
-12.65954602471488
 20
4.4140881541696304
 30
0.0
 11
-12.65954602471488
 21
4.4140881541696304
 31
0.0
  0
LINE
  5
53CC9
  8
0
 62
     0
 10
-12.725837285451121
 20
4.347796893433391
 30
0.0
 11
-12.725837285451121
 21
4.347796893433391
 31
0.0
  0
LINE
  5
53CCA
  8
0
 62
     0
 10
-12.79212854618736
 20
4.2815056326971526
 30
0.0
 11
-12.79212854618736
 21
4.2815056326971526
 31
0.0
  0
LINE
  5
53CCB
  8
0
 62
     0
 10
-12.8584198069236
 20
4.2152143719609141
 30
0.0
 11
-12.8584198069236
 21
4.2152143719609141
 31
0.0
  0
LINE
  5
53CCC
  8
0
 62
     0
 10
-11.03541013667701
 20
6.1708065636799532
 30
0.0
 11
-11.03541013667701
 21
6.1708065636799532
 31
0.0
  0
LINE
  5
53CCD
  8
0
 62
     0
 10
-11.101701397413249
 20
6.1045153029437138
 30
0.0
 11
-11.101701397413249
 21
6.1045153029437138
 31
0.0
  0
LINE
  5
53CCE
  8
0
 62
     0
 10
-11.16799265814949
 20
6.0382240422074762
 30
0.0
 11
-11.16799265814949
 21
6.0382240422074762
 31
0.0
  0
LINE
  5
53CCF
  8
0
 62
     0
 10
-11.23428391888573
 20
5.9719327814712369
 30
0.0
 11
-11.23428391888573
 21
5.9719327814712369
 31
0.0
  0
LINE
  5
53CD0
  8
0
 62
     0
 10
-11.300575179621969
 20
5.9056415207349993
 30
0.0
 11
-11.300575179621969
 21
5.9056415207349993
 31
0.0
  0
LINE
  5
53CD1
  8
0
 62
     0
 10
-11.36686644035821
 20
5.8393502599987599
 30
0.0
 11
-11.36686644035821
 21
5.8393502599987599
 31
0.0
  0
LINE
  5
53CD2
  8
0
 62
     0
 10
-11.43315770109445
 20
5.7730589992625223
 30
0.0
 11
-11.43315770109445
 21
5.7730589992625223
 31
0.0
  0
LINE
  5
53CD3
  8
0
 62
     0
 10
-11.499448961830691
 20
5.7067677385262829
 30
0.0
 11
-11.499448961830691
 21
5.7067677385262829
 31
0.0
  0
LINE
  5
53CD4
  8
0
 62
     0
 10
-11.56574022256693
 20
5.6404764777900454
 30
0.0
 11
-11.56574022256693
 21
5.6404764777900454
 31
0.0
  0
LINE
  5
53CD5
  8
0
 62
     0
 10
-11.632031483303169
 20
5.574185217053806
 30
0.0
 11
-11.632031483303169
 21
5.574185217053806
 31
0.0
  0
LINE
  5
53CD6
  8
0
 62
     0
 10
-11.698322744039411
 20
5.5078939563175684
 30
0.0
 11
-11.698322744039411
 21
5.5078939563175684
 31
0.0
  0
LINE
  5
53CD7
  8
0
 62
     0
 10
-11.76461400477565
 20
5.441602695581329
 30
0.0
 11
-11.76461400477565
 21
5.441602695581329
 31
0.0
  0
LINE
  5
53CD8
  8
0
 62
     0
 10
-11.830905265511889
 20
5.3753114348450914
 30
0.0
 11
-11.830905265511889
 21
5.3753114348450914
 31
0.0
  0
LINE
  5
53CD9
  8
0
 62
     0
 10
-11.897196526248131
 20
5.3090201741088521
 30
0.0
 11
-11.897196526248131
 21
5.3090201741088521
 31
0.0
  0
LINE
  5
53CDA
  8
0
 62
     0
 10
-11.963487786984359
 20
5.2427289133726136
 30
0.0
 11
-11.963487786984359
 21
5.2427289133726136
 31
0.0
  0
LINE
  5
53CDB
  8
0
 62
     0
 10
-12.0297790477206
 20
5.176437652636376
 30
0.0
 11
-12.0297790477206
 21
5.176437652636376
 31
0.0
  0
LINE
  5
53CDC
  8
0
 62
     0
 10
-12.09607030845684
 20
5.1101463919001366
 30
0.0
 11
-12.09607030845684
 21
5.1101463919001366
 31
0.0
  0
LINE
  5
53CDD
  8
0
 62
     0
 10
-12.162361569193081
 20
5.0438551311638991
 30
0.0
 11
-12.162361569193081
 21
5.0438551311638991
 31
0.0
  0
LINE
  5
53CDE
  8
0
 62
     0
 10
-12.22865282992932
 20
4.9775638704276597
 30
0.0
 11
-12.22865282992932
 21
4.9775638704276597
 31
0.0
  0
LINE
  5
53CDF
  8
0
 62
     0
 10
-12.29494409066556
 20
4.9112726096914221
 30
0.0
 11
-12.29494409066556
 21
4.9112726096914221
 31
0.0
  0
LINE
  5
53CE0
  8
0
 62
     0
 10
-12.361235351401801
 20
4.8449813489551827
 30
0.0
 11
-12.361235351401801
 21
4.8449813489551827
 31
0.0
  0
LINE
  5
53CE1
  8
0
 62
     0
 10
-12.42752661213804
 20
4.7786900882189451
 30
0.0
 11
-12.42752661213804
 21
4.7786900882189451
 31
0.0
  0
LINE
  5
53CE2
  8
0
 62
     0
 10
-12.493817872874279
 20
4.7123988274827058
 30
0.0
 11
-12.493817872874279
 21
4.7123988274827058
 31
0.0
  0
LINE
  5
53CE3
  8
0
 62
     0
 10
-12.560109133610521
 20
4.6461075667464682
 30
0.0
 11
-12.560109133610521
 21
4.6461075667464682
 31
0.0
  0
LINE
  5
53CE4
  8
0
 62
     0
 10
-12.62640039434676
 20
4.5798163060102288
 30
0.0
 11
-12.62640039434676
 21
4.5798163060102288
 31
0.0
  0
LINE
  5
53CE5
  8
0
 62
     0
 10
-12.692691655082999
 20
4.5135250452739912
 30
0.0
 11
-12.692691655082999
 21
4.5135250452739912
 31
0.0
  0
LINE
  5
53CE6
  8
0
 62
     0
 10
-12.75898291581924
 20
4.4472337845377519
 30
0.0
 11
-12.75898291581924
 21
4.4472337845377519
 31
0.0
  0
LINE
  5
53CE7
  8
0
 62
     0
 10
-12.82527417655548
 20
4.3809425238015143
 30
0.0
 11
-12.82527417655548
 21
4.3809425238015143
 31
0.0
  0
LINE
  5
53CE8
  8
0
 62
     0
 10
-12.891565437291719
 20
4.3146512630652749
 30
0.0
 11
-12.891565437291719
 21
4.3146512630652749
 31
0.0
  0
LINE
  5
53CE9
  8
0
 62
     0
 10
-11.002264506308901
 20
6.3365347155205507
 30
0.0
 11
-11.002264506308901
 21
6.3365347155205507
 31
0.0
  0
LINE
  5
53CEA
  8
0
 62
     0
 10
-11.06855576704514
 20
6.2702434547843131
 30
0.0
 11
-11.06855576704514
 21
6.2702434547843131
 31
0.0
  0
LINE
  5
53CEB
  8
0
 62
     0
 10
-11.13484702778138
 20
6.2039521940480737
 30
0.0
 11
-11.13484702778138
 21
6.2039521940480737
 31
0.0
  0
LINE
  5
53CEC
  8
0
 62
     0
 10
-11.201138288517621
 20
6.1376609333118362
 30
0.0
 11
-11.201138288517621
 21
6.1376609333118362
 31
0.0
  0
LINE
  5
53CED
  8
0
 62
     0
 10
-11.26742954925386
 20
6.0713696725755968
 30
0.0
 11
-11.26742954925386
 21
6.0713696725755968
 31
0.0
  0
LINE
  5
53CEE
  8
0
 62
     0
 10
-11.333720809990091
 20
6.0050784118393592
 30
0.0
 11
-11.333720809990091
 21
6.0050784118393592
 31
0.0
  0
LINE
  5
53CEF
  8
0
 62
     0
 10
-11.40001207072633
 20
5.9387871511031198
 30
0.0
 11
-11.40001207072633
 21
5.9387871511031198
 31
0.0
  0
LINE
  5
53CF0
  8
0
 62
     0
 10
-11.466303331462569
 20
5.8724958903668822
 30
0.0
 11
-11.466303331462569
 21
5.8724958903668822
 31
0.0
  0
LINE
  5
53CF1
  8
0
 62
     0
 10
-11.53259459219881
 20
5.8062046296306429
 30
0.0
 11
-11.53259459219881
 21
5.8062046296306429
 31
0.0
  0
LINE
  5
53CF2
  8
0
 62
     0
 10
-11.59888585293505
 20
5.7399133688944053
 30
0.0
 11
-11.59888585293505
 21
5.7399133688944053
 31
0.0
  0
LINE
  5
53CF3
  8
0
 62
     0
 10
-11.665177113671289
 20
5.6736221081581659
 30
0.0
 11
-11.665177113671289
 21
5.6736221081581659
 31
0.0
  0
LINE
  5
53CF4
  8
0
 62
     0
 10
-11.73146837440753
 20
5.6073308474219283
 30
0.0
 11
-11.73146837440753
 21
5.6073308474219283
 31
0.0
  0
LINE
  5
53CF5
  8
0
 62
     0
 10
-11.79775963514377
 20
5.541039586685689
 30
0.0
 11
-11.79775963514377
 21
5.541039586685689
 31
0.0
  0
LINE
  5
53CF6
  8
0
 62
     0
 10
-11.864050895880011
 20
5.4747483259494514
 30
0.0
 11
-11.864050895880011
 21
5.4747483259494514
 31
0.0
  0
LINE
  5
53CF7
  8
0
 62
     0
 10
-11.93034215661625
 20
5.408457065213212
 30
0.0
 11
-11.93034215661625
 21
5.408457065213212
 31
0.0
  0
LINE
  5
53CF8
  8
0
 62
     0
 10
-11.99663341735249
 20
5.3421658044769744
 30
0.0
 11
-11.99663341735249
 21
5.3421658044769744
 31
0.0
  0
LINE
  5
53CF9
  8
0
 62
     0
 10
-12.062924678088731
 20
5.2758745437407351
 30
0.0
 11
-12.062924678088731
 21
5.2758745437407351
 31
0.0
  0
LINE
  5
53CFA
  8
0
 62
     0
 10
-12.12921593882497
 20
5.2095832830044966
 30
0.0
 11
-12.12921593882497
 21
5.2095832830044966
 31
0.0
  0
LINE
  5
53CFB
  8
0
 62
     0
 10
-12.195507199561209
 20
5.1432920222682581
 30
0.0
 11
-12.195507199561209
 21
5.1432920222682581
 31
0.0
  0
LINE
  5
53CFC
  8
0
 62
     0
 10
-12.261798460297451
 20
5.0770007615320196
 30
0.0
 11
-12.261798460297451
 21
5.0770007615320196
 31
0.0
  0
LINE
  5
53CFD
  8
0
 62
     0
 10
-12.32808972103369
 20
5.010709500795782
 30
0.0
 11
-12.32808972103369
 21
5.010709500795782
 31
0.0
  0
LINE
  5
53CFE
  8
0
 62
     0
 10
-12.39438098176992
 20
4.9444182400595427
 30
0.0
 11
-12.39438098176992
 21
4.9444182400595427
 31
0.0
  0
LINE
  5
53CFF
  8
0
 62
     0
 10
-12.46067224250616
 20
4.8781269793233051
 30
0.0
 11
-12.46067224250616
 21
4.8781269793233051
 31
0.0
  0
LINE
  5
53D00
  8
0
 62
     0
 10
-12.526963503242399
 20
4.8118357185870657
 30
0.0
 11
-12.526963503242399
 21
4.8118357185870657
 31
0.0
  0
LINE
  5
53D01
  8
0
 62
     0
 10
-12.59325476397864
 20
4.7455444578508281
 30
0.0
 11
-12.59325476397864
 21
4.7455444578508281
 31
0.0
  0
LINE
  5
53D02
  8
0
 62
     0
 10
-12.65954602471488
 20
4.6792531971145888
 30
0.0
 11
-12.65954602471488
 21
4.6792531971145888
 31
0.0
  0
LINE
  5
53D03
  8
0
 62
     0
 10
-12.725837285451121
 20
4.6129619363783512
 30
0.0
 11
-12.725837285451121
 21
4.6129619363783512
 31
0.0
  0
LINE
  5
53D04
  8
0
 62
     0
 10
-12.79212854618736
 20
4.5466706756421118
 30
0.0
 11
-12.79212854618736
 21
4.5466706756421118
 31
0.0
  0
LINE
  5
53D05
  8
0
 62
     0
 10
-12.8584198069236
 20
4.4803794149058742
 30
0.0
 11
-12.8584198069236
 21
4.4803794149058742
 31
0.0
  0
LINE
  5
53D06
  8
0
 62
     0
 10
-11.03541013667701
 20
6.4359716066249142
 30
0.0
 11
-11.03541013667701
 21
6.4359716066249142
 31
0.0
  0
LINE
  5
53D07
  8
0
 62
     0
 10
-11.101701397413249
 20
6.3696803458886748
 30
0.0
 11
-11.101701397413249
 21
6.3696803458886748
 31
0.0
  0
LINE
  5
53D08
  8
0
 62
     0
 10
-11.16799265814949
 20
6.3033890851524372
 30
0.0
 11
-11.16799265814949
 21
6.3033890851524372
 31
0.0
  0
LINE
  5
53D09
  8
0
 62
     0
 10
-11.23428391888573
 20
6.2370978244161979
 30
0.0
 11
-11.23428391888573
 21
6.2370978244161979
 31
0.0
  0
LINE
  5
53D0A
  8
0
 62
     0
 10
-11.300575179621969
 20
6.1708065636799603
 30
0.0
 11
-11.300575179621969
 21
6.1708065636799603
 31
0.0
  0
LINE
  5
53D0B
  8
0
 62
     0
 10
-11.36686644035821
 20
6.1045153029437209
 30
0.0
 11
-11.36686644035821
 21
6.1045153029437209
 31
0.0
  0
LINE
  5
53D0C
  8
0
 62
     0
 10
-11.433157701094441
 20
6.0382240422074833
 30
0.0
 11
-11.433157701094441
 21
6.0382240422074833
 31
0.0
  0
LINE
  5
53D0D
  8
0
 62
     0
 10
-11.49944896183068
 20
5.971932781471244
 30
0.0
 11
-11.49944896183068
 21
5.971932781471244
 31
0.0
  0
LINE
  5
53D0E
  8
0
 62
     0
 10
-11.565740222566919
 20
5.9056415207350064
 30
0.0
 11
-11.565740222566919
 21
5.9056415207350064
 31
0.0
  0
LINE
  5
53D0F
  8
0
 62
     0
 10
-11.632031483303161
 20
5.839350259998767
 30
0.0
 11
-11.632031483303161
 21
5.839350259998767
 31
0.0
  0
LINE
  5
53D10
  8
0
 62
     0
 10
-11.6983227440394
 20
5.7730589992625294
 30
0.0
 11
-11.6983227440394
 21
5.7730589992625294
 31
0.0
  0
LINE
  5
53D11
  8
0
 62
     0
 10
-11.764614004775639
 20
5.70676773852629
 30
0.0
 11
-11.764614004775639
 21
5.70676773852629
 31
0.0
  0
LINE
  5
53D12
  8
0
 62
     0
 10
-11.83090526551188
 20
5.6404764777900516
 30
0.0
 11
-11.83090526551188
 21
5.6404764777900516
 31
0.0
  0
LINE
  5
53D13
  8
0
 62
     0
 10
-11.89719652624812
 20
5.5741852170538131
 30
0.0
 11
-11.89719652624812
 21
5.5741852170538131
 31
0.0
  0
LINE
  5
53D14
  8
0
 62
     0
 10
-11.963487786984359
 20
5.5078939563175746
 30
0.0
 11
-11.963487786984359
 21
5.5078939563175746
 31
0.0
  0
LINE
  5
53D15
  8
0
 62
     0
 10
-12.0297790477206
 20
5.441602695581337
 30
0.0
 11
-12.0297790477206
 21
5.441602695581337
 31
0.0
  0
LINE
  5
53D16
  8
0
 62
     0
 10
-12.09607030845684
 20
5.3753114348450977
 30
0.0
 11
-12.09607030845684
 21
5.3753114348450977
 31
0.0
  0
LINE
  5
53D17
  8
0
 62
     0
 10
-12.162361569193081
 20
5.3090201741088601
 30
0.0
 11
-12.162361569193081
 21
5.3090201741088601
 31
0.0
  0
LINE
  5
53D18
  8
0
 62
     0
 10
-12.22865282992932
 20
5.2427289133726207
 30
0.0
 11
-12.22865282992932
 21
5.2427289133726207
 31
0.0
  0
LINE
  5
53D19
  8
0
 62
     0
 10
-12.29494409066556
 20
5.1764376526363831
 30
0.0
 11
-12.29494409066556
 21
5.1764376526363831
 31
0.0
  0
LINE
  5
53D1A
  8
0
 62
     0
 10
-12.361235351401801
 20
5.1101463919001437
 30
0.0
 11
-12.361235351401801
 21
5.1101463919001437
 31
0.0
  0
LINE
  5
53D1B
  8
0
 62
     0
 10
-12.42752661213804
 20
5.0438551311639062
 30
0.0
 11
-12.42752661213804
 21
5.0438551311639062
 31
0.0
  0
LINE
  5
53D1C
  8
0
 62
     0
 10
-12.493817872874271
 20
4.9775638704276668
 30
0.0
 11
-12.493817872874271
 21
4.9775638704276668
 31
0.0
  0
LINE
  5
53D1D
  8
0
 62
     0
 10
-12.56010913361051
 20
4.9112726096914292
 30
0.0
 11
-12.56010913361051
 21
4.9112726096914292
 31
0.0
  0
LINE
  5
53D1E
  8
0
 62
     0
 10
-12.626400394346749
 20
4.8449813489551898
 30
0.0
 11
-12.626400394346749
 21
4.8449813489551898
 31
0.0
  0
LINE
  5
53D1F
  8
0
 62
     0
 10
-12.69269165508299
 20
4.7786900882189522
 30
0.0
 11
-12.69269165508299
 21
4.7786900882189522
 31
0.0
  0
LINE
  5
53D20
  8
0
 62
     0
 10
-12.75898291581923
 20
4.7123988274827129
 30
0.0
 11
-12.75898291581923
 21
4.7123988274827129
 31
0.0
  0
LINE
  5
53D21
  8
0
 62
     0
 10
-12.825274176555469
 20
4.6461075667464753
 30
0.0
 11
-12.825274176555469
 21
4.6461075667464753
 31
0.0
  0
LINE
  5
53D22
  8
0
 62
     0
 10
-12.89156543729171
 20
4.5798163060102359
 30
0.0
 11
-12.89156543729171
 21
4.5798163060102359
 31
0.0
  0
LINE
  5
53D23
  8
0
 62
     0
 10
-11.002264506308901
 20
6.6016997584655073
 30
0.0
 11
-11.002264506308901
 21
6.6016997584655073
 31
0.0
  0
LINE
  5
53D24
  8
0
 62
     0
 10
-11.06855576704513
 20
6.5354084977292679
 30
0.0
 11
-11.06855576704513
 21
6.5354084977292679
 31
0.0
  0
LINE
  5
53D25
  8
0
 62
     0
 10
-11.134847027781371
 20
6.4691172369930303
 30
0.0
 11
-11.134847027781371
 21
6.4691172369930303
 31
0.0
  0
LINE
  5
53D26
  8
0
 62
     0
 10
-11.20113828851761
 20
6.402825976256791
 30
0.0
 11
-11.20113828851761
 21
6.402825976256791
 31
0.0
  0
LINE
  5
53D27
  8
0
 62
     0
 10
-11.267429549253849
 20
6.3365347155205534
 30
0.0
 11
-11.267429549253849
 21
6.3365347155205534
 31
0.0
  0
LINE
  5
53D28
  8
0
 62
     0
 10
-11.333720809990091
 20
6.270243454784314
 30
0.0
 11
-11.333720809990091
 21
6.270243454784314
 31
0.0
  0
LINE
  5
53D29
  8
0
 62
     0
 10
-11.40001207072633
 20
6.2039521940480764
 30
0.0
 11
-11.40001207072633
 21
6.2039521940480764
 31
0.0
  0
LINE
  5
53D2A
  8
0
 62
     0
 10
-11.466303331462569
 20
6.137660933311837
 30
0.0
 11
-11.466303331462569
 21
6.137660933311837
 31
0.0
  0
LINE
  5
53D2B
  8
0
 62
     0
 10
-11.53259459219881
 20
6.0713696725755986
 30
0.0
 11
-11.53259459219881
 21
6.0713696725755986
 31
0.0
  0
LINE
  5
53D2C
  8
0
 62
     0
 10
-11.59888585293505
 20
6.0050784118393601
 30
0.0
 11
-11.59888585293505
 21
6.0050784118393601
 31
0.0
  0
LINE
  5
53D2D
  8
0
 62
     0
 10
-11.665177113671289
 20
5.9387871511031216
 30
0.0
 11
-11.665177113671289
 21
5.9387871511031216
 31
0.0
  0
LINE
  5
53D2E
  8
0
 62
     0
 10
-11.73146837440753
 20
5.872495890366884
 30
0.0
 11
-11.73146837440753
 21
5.872495890366884
 31
0.0
  0
LINE
  5
53D2F
  8
0
 62
     0
 10
-11.79775963514377
 20
5.8062046296306447
 30
0.0
 11
-11.79775963514377
 21
5.8062046296306447
 31
0.0
  0
LINE
  5
53D30
  8
0
 62
     0
 10
-11.864050895880011
 20
5.7399133688944071
 30
0.0
 11
-11.864050895880011
 21
5.7399133688944071
 31
0.0
  0
LINE
  5
53D31
  8
0
 62
     0
 10
-11.93034215661625
 20
5.6736221081581677
 30
0.0
 11
-11.93034215661625
 21
5.6736221081581677
 31
0.0
  0
LINE
  5
53D32
  8
0
 62
     0
 10
-11.99663341735249
 20
5.6073308474219301
 30
0.0
 11
-11.99663341735249
 21
5.6073308474219301
 31
0.0
  0
LINE
  5
53D33
  8
0
 62
     0
 10
-12.062924678088731
 20
5.5410395866856907
 30
0.0
 11
-12.062924678088731
 21
5.5410395866856907
 31
0.0
  0
LINE
  5
53D34
  8
0
 62
     0
 10
-12.129215938824959
 20
5.4747483259494532
 30
0.0
 11
-12.129215938824959
 21
5.4747483259494532
 31
0.0
  0
LINE
  5
53D35
  8
0
 62
     0
 10
-12.195507199561201
 20
5.4084570652132138
 30
0.0
 11
-12.195507199561201
 21
5.4084570652132138
 31
0.0
  0
LINE
  5
53D36
  8
0
 62
     0
 10
-12.26179846029744
 20
5.3421658044769762
 30
0.0
 11
-12.26179846029744
 21
5.3421658044769762
 31
0.0
  0
LINE
  5
53D37
  8
0
 62
     0
 10
-12.328089721033679
 20
5.2758745437407368
 30
0.0
 11
-12.328089721033679
 21
5.2758745437407368
 31
0.0
  0
LINE
  5
53D38
  8
0
 62
     0
 10
-12.39438098176992
 20
5.2095832830044992
 30
0.0
 11
-12.39438098176992
 21
5.2095832830044992
 31
0.0
  0
LINE
  5
53D39
  8
0
 62
     0
 10
-12.46067224250616
 20
5.1432920222682599
 30
0.0
 11
-12.46067224250616
 21
5.1432920222682599
 31
0.0
  0
LINE
  5
53D3A
  8
0
 62
     0
 10
-12.526963503242399
 20
5.0770007615320223
 30
0.0
 11
-12.526963503242399
 21
5.0770007615320223
 31
0.0
  0
LINE
  5
53D3B
  8
0
 62
     0
 10
-12.59325476397864
 20
5.0107095007957829
 30
0.0
 11
-12.59325476397864
 21
5.0107095007957829
 31
0.0
  0
LINE
  5
53D3C
  8
0
 62
     0
 10
-12.65954602471488
 20
4.9444182400595453
 30
0.0
 11
-12.65954602471488
 21
4.9444182400595453
 31
0.0
  0
LINE
  5
53D3D
  8
0
 62
     0
 10
-12.725837285451121
 20
4.878126979323306
 30
0.0
 11
-12.725837285451121
 21
4.878126979323306
 31
0.0
  0
LINE
  5
53D3E
  8
0
 62
     0
 10
-12.79212854618736
 20
4.8118357185870684
 30
0.0
 11
-12.79212854618736
 21
4.8118357185870684
 31
0.0
  0
LINE
  5
53D3F
  8
0
 62
     0
 10
-12.8584198069236
 20
4.745544457850829
 30
0.0
 11
-12.8584198069236
 21
4.745544457850829
 31
0.0
  0
LINE
  5
53D40
  8
0
 62
     0
 10
-11.03541013667701
 20
6.7011366495698672
 30
0.0
 11
-11.03541013667701
 21
6.7011366495698672
 31
0.0
  0
LINE
  5
53D41
  8
0
 62
     0
 10
-11.101701397413249
 20
6.6348453888336278
 30
0.0
 11
-11.101701397413249
 21
6.6348453888336278
 31
0.0
  0
LINE
  5
53D42
  8
0
 62
     0
 10
-11.16799265814949
 20
6.5685541280973903
 30
0.0
 11
-11.16799265814949
 21
6.5685541280973903
 31
0.0
  0
LINE
  5
53D43
  8
0
 62
     0
 10
-11.23428391888573
 20
6.5022628673611509
 30
0.0
 11
-11.23428391888573
 21
6.5022628673611509
 31
0.0
  0
LINE
  5
53D44
  8
0
 62
     0
 10
-11.300575179621969
 20
6.4359716066249133
 30
0.0
 11
-11.300575179621969
 21
6.4359716066249133
 31
0.0
  0
LINE
  5
53D45
  8
0
 62
     0
 10
-11.36686644035821
 20
6.3696803458886739
 30
0.0
 11
-11.36686644035821
 21
6.3696803458886739
 31
0.0
  0
LINE
  5
53D46
  8
0
 62
     0
 10
-11.43315770109445
 20
6.3033890851524363
 30
0.0
 11
-11.43315770109445
 21
6.3033890851524363
 31
0.0
  0
LINE
  5
53D47
  8
0
 62
     0
 10
-11.499448961830691
 20
6.237097824416197
 30
0.0
 11
-11.499448961830691
 21
6.237097824416197
 31
0.0
  0
LINE
  5
53D48
  8
0
 62
     0
 10
-11.56574022256693
 20
6.1708065636799594
 30
0.0
 11
-11.56574022256693
 21
6.1708065636799594
 31
0.0
  0
LINE
  5
53D49
  8
0
 62
     0
 10
-11.632031483303169
 20
6.10451530294372
 30
0.0
 11
-11.632031483303169
 21
6.10451530294372
 31
0.0
  0
LINE
  5
53D4A
  8
0
 62
     0
 10
-11.698322744039411
 20
6.0382240422074824
 30
0.0
 11
-11.698322744039411
 21
6.0382240422074824
 31
0.0
  0
LINE
  5
53D4B
  8
0
 62
     0
 10
-11.76461400477565
 20
5.9719327814712431
 30
0.0
 11
-11.76461400477565
 21
5.9719327814712431
 31
0.0
  0
LINE
  5
53D4C
  8
0
 62
     0
 10
-11.830905265511889
 20
5.9056415207350046
 30
0.0
 11
-11.830905265511889
 21
5.9056415207350046
 31
0.0
  0
LINE
  5
53D4D
  8
0
 62
     0
 10
-11.897196526248131
 20
5.839350259998767
 30
0.0
 11
-11.897196526248131
 21
5.839350259998767
 31
0.0
  0
LINE
  5
53D4E
  8
0
 62
     0
 10
-11.96348778698437
 20
5.7730589992625276
 30
0.0
 11
-11.96348778698437
 21
5.7730589992625276
 31
0.0
  0
LINE
  5
53D4F
  8
0
 62
     0
 10
-12.029779047720609
 20
5.70676773852629
 30
0.0
 11
-12.029779047720609
 21
5.70676773852629
 31
0.0
  0
LINE
  5
53D50
  8
0
 62
     0
 10
-12.09607030845684
 20
5.6404764777900507
 30
0.0
 11
-12.09607030845684
 21
5.6404764777900507
 31
0.0
  0
LINE
  5
53D51
  8
0
 62
     0
 10
-12.162361569193081
 20
5.5741852170538131
 30
0.0
 11
-12.162361569193081
 21
5.5741852170538131
 31
0.0
  0
LINE
  5
53D52
  8
0
 62
     0
 10
-12.22865282992932
 20
5.5078939563175737
 30
0.0
 11
-12.22865282992932
 21
5.5078939563175737
 31
0.0
  0
LINE
  5
53D53
  8
0
 62
     0
 10
-12.29494409066556
 20
5.4416026955813361
 30
0.0
 11
-12.29494409066556
 21
5.4416026955813361
 31
0.0
  0
LINE
  5
53D54
  8
0
 62
     0
 10
-12.361235351401801
 20
5.3753114348450968
 30
0.0
 11
-12.361235351401801
 21
5.3753114348450968
 31
0.0
  0
LINE
  5
53D55
  8
0
 62
     0
 10
-12.42752661213804
 20
5.3090201741088592
 30
0.0
 11
-12.42752661213804
 21
5.3090201741088592
 31
0.0
  0
LINE
  5
53D56
  8
0
 62
     0
 10
-12.493817872874279
 20
5.2427289133726198
 30
0.0
 11
-12.493817872874279
 21
5.2427289133726198
 31
0.0
  0
LINE
  5
53D57
  8
0
 62
     0
 10
-12.560109133610521
 20
5.1764376526363822
 30
0.0
 11
-12.560109133610521
 21
5.1764376526363822
 31
0.0
  0
LINE
  5
53D58
  8
0
 62
     0
 10
-12.62640039434676
 20
5.1101463919001429
 30
0.0
 11
-12.62640039434676
 21
5.1101463919001429
 31
0.0
  0
LINE
  5
53D59
  8
0
 62
     0
 10
-12.692691655082999
 20
5.0438551311639053
 30
0.0
 11
-12.692691655082999
 21
5.0438551311639053
 31
0.0
  0
LINE
  5
53D5A
  8
0
 62
     0
 10
-12.75898291581924
 20
4.9775638704276659
 30
0.0
 11
-12.75898291581924
 21
4.9775638704276659
 31
0.0
  0
LINE
  5
53D5B
  8
0
 62
     0
 10
-12.82527417655548
 20
4.9112726096914283
 30
0.0
 11
-12.82527417655548
 21
4.9112726096914283
 31
0.0
  0
LINE
  5
53D5C
  8
0
 62
     0
 10
-12.891565437291719
 20
4.8449813489551889
 30
0.0
 11
-12.891565437291719
 21
4.8449813489551889
 31
0.0
  0
LINE
  5
53D5D
  8
0
 62
     0
 10
-11.002264506308901
 20
6.8668648014104612
 30
0.0
 11
-11.002264506308901
 21
6.8668648014104612
 31
0.0
  0
LINE
  5
53D5E
  8
0
 62
     0
 10
-11.06855576704513
 20
6.8005735406742218
 30
0.0
 11
-11.06855576704513
 21
6.8005735406742218
 31
0.0
  0
LINE
  5
53D5F
  8
0
 62
     0
 10
-11.134847027781371
 20
6.7342822799379842
 30
0.0
 11
-11.134847027781371
 21
6.7342822799379842
 31
0.0
  0
LINE
  5
53D60
  8
0
 62
     0
 10
-11.20113828851761
 20
6.6679910192017449
 30
0.0
 11
-11.20113828851761
 21
6.6679910192017449
 31
0.0
  0
LINE
  5
53D61
  8
0
 62
     0
 10
-11.267429549253849
 20
6.6016997584655073
 30
0.0
 11
-11.267429549253849
 21
6.6016997584655073
 31
0.0
  0
LINE
  5
53D62
  8
0
 62
     0
 10
-11.333720809990091
 20
6.5354084977292679
 30
0.0
 11
-11.333720809990091
 21
6.5354084977292679
 31
0.0
  0
LINE
  5
53D63
  8
0
 62
     0
 10
-11.40001207072633
 20
6.4691172369930303
 30
0.0
 11
-11.40001207072633
 21
6.4691172369930303
 31
0.0
  0
LINE
  5
53D64
  8
0
 62
     0
 10
-11.466303331462569
 20
6.402825976256791
 30
0.0
 11
-11.466303331462569
 21
6.402825976256791
 31
0.0
  0
LINE
  5
53D65
  8
0
 62
     0
 10
-11.53259459219881
 20
6.3365347155205534
 30
0.0
 11
-11.53259459219881
 21
6.3365347155205534
 31
0.0
  0
LINE
  5
53D66
  8
0
 62
     0
 10
-11.59888585293505
 20
6.270243454784314
 30
0.0
 11
-11.59888585293505
 21
6.270243454784314
 31
0.0
  0
LINE
  5
53D67
  8
0
 62
     0
 10
-11.665177113671289
 20
6.2039521940480764
 30
0.0
 11
-11.665177113671289
 21
6.2039521940480764
 31
0.0
  0
LINE
  5
53D68
  8
0
 62
     0
 10
-11.73146837440753
 20
6.137660933311837
 30
0.0
 11
-11.73146837440753
 21
6.137660933311837
 31
0.0
  0
LINE
  5
53D69
  8
0
 62
     0
 10
-11.79775963514377
 20
6.0713696725755986
 30
0.0
 11
-11.79775963514377
 21
6.0713696725755986
 31
0.0
  0
LINE
  5
53D6A
  8
0
 62
     0
 10
-11.864050895880011
 20
6.0050784118393601
 30
0.0
 11
-11.864050895880011
 21
6.0050784118393601
 31
0.0
  0
LINE
  5
53D6B
  8
0
 62
     0
 10
-11.93034215661625
 20
5.9387871511031216
 30
0.0
 11
-11.93034215661625
 21
5.9387871511031216
 31
0.0
  0
LINE
  5
53D6C
  8
0
 62
     0
 10
-11.99663341735249
 20
5.872495890366884
 30
0.0
 11
-11.99663341735249
 21
5.872495890366884
 31
0.0
  0
LINE
  5
53D6D
  8
0
 62
     0
 10
-12.062924678088731
 20
5.8062046296306447
 30
0.0
 11
-12.062924678088731
 21
5.8062046296306447
 31
0.0
  0
LINE
  5
53D6E
  8
0
 62
     0
 10
-12.129215938824959
 20
5.7399133688944071
 30
0.0
 11
-12.129215938824959
 21
5.7399133688944071
 31
0.0
  0
LINE
  5
53D6F
  8
0
 62
     0
 10
-12.195507199561201
 20
5.6736221081581677
 30
0.0
 11
-12.195507199561201
 21
5.6736221081581677
 31
0.0
  0
LINE
  5
53D70
  8
0
 62
     0
 10
-12.26179846029744
 20
5.6073308474219301
 30
0.0
 11
-12.26179846029744
 21
5.6073308474219301
 31
0.0
  0
LINE
  5
53D71
  8
0
 62
     0
 10
-12.328089721033679
 20
5.5410395866856907
 30
0.0
 11
-12.328089721033679
 21
5.5410395866856907
 31
0.0
  0
LINE
  5
53D72
  8
0
 62
     0
 10
-12.39438098176992
 20
5.4747483259494532
 30
0.0
 11
-12.39438098176992
 21
5.4747483259494532
 31
0.0
  0
LINE
  5
53D73
  8
0
 62
     0
 10
-12.46067224250616
 20
5.4084570652132138
 30
0.0
 11
-12.46067224250616
 21
5.4084570652132138
 31
0.0
  0
LINE
  5
53D74
  8
0
 62
     0
 10
-12.526963503242399
 20
5.3421658044769762
 30
0.0
 11
-12.526963503242399
 21
5.3421658044769762
 31
0.0
  0
LINE
  5
53D75
  8
0
 62
     0
 10
-12.59325476397864
 20
5.2758745437407368
 30
0.0
 11
-12.59325476397864
 21
5.2758745437407368
 31
0.0
  0
LINE
  5
53D76
  8
0
 62
     0
 10
-12.65954602471488
 20
5.2095832830044992
 30
0.0
 11
-12.65954602471488
 21
5.2095832830044992
 31
0.0
  0
LINE
  5
53D77
  8
0
 62
     0
 10
-12.725837285451121
 20
5.1432920222682599
 30
0.0
 11
-12.725837285451121
 21
5.1432920222682599
 31
0.0
  0
LINE
  5
53D78
  8
0
 62
     0
 10
-12.79212854618736
 20
5.0770007615320223
 30
0.0
 11
-12.79212854618736
 21
5.0770007615320223
 31
0.0
  0
LINE
  5
53D79
  8
0
 62
     0
 10
-12.8584198069236
 20
5.0107095007957829
 30
0.0
 11
-12.8584198069236
 21
5.0107095007957829
 31
0.0
  0
LINE
  5
53D7A
  8
0
 62
     0
 10
-11.035410136677021
 20
6.9663016925148167
 30
0.0
 11
-11.035410136677021
 21
6.9663016925148167
 31
0.0
  0
LINE
  5
53D7B
  8
0
 62
     0
 10
-11.10170139741326
 20
6.9000104317785791
 30
0.0
 11
-11.10170139741326
 21
6.9000104317785791
 31
0.0
  0
LINE
  5
53D7C
  8
0
 62
     0
 10
-11.167992658149499
 20
6.8337191710423397
 30
0.0
 11
-11.167992658149499
 21
6.8337191710423397
 31
0.0
  0
LINE
  5
53D7D
  8
0
 62
     0
 10
-11.23428391888574
 20
6.7674279103061021
 30
0.0
 11
-11.23428391888574
 21
6.7674279103061021
 31
0.0
  0
LINE
  5
53D7E
  8
0
 62
     0
 10
-11.30057517962198
 20
6.7011366495698628
 30
0.0
 11
-11.30057517962198
 21
6.7011366495698628
 31
0.0
  0
LINE
  5
53D7F
  8
0
 62
     0
 10
-11.366866440358219
 20
6.6348453888336252
 30
0.0
 11
-11.366866440358219
 21
6.6348453888336252
 31
0.0
  0
LINE
  5
53D80
  8
0
 62
     0
 10
-11.43315770109445
 20
6.5685541280973858
 30
0.0
 11
-11.43315770109445
 21
6.5685541280973858
 31
0.0
  0
LINE
  5
53D81
  8
0
 62
     0
 10
-11.499448961830691
 20
6.5022628673611482
 30
0.0
 11
-11.499448961830691
 21
6.5022628673611482
 31
0.0
  0
LINE
  5
53D82
  8
0
 62
     0
 10
-11.56574022256693
 20
6.4359716066249089
 30
0.0
 11
-11.56574022256693
 21
6.4359716066249089
 31
0.0
  0
LINE
  5
53D83
  8
0
 62
     0
 10
-11.632031483303169
 20
6.3696803458886713
 30
0.0
 11
-11.632031483303169
 21
6.3696803458886713
 31
0.0
  0
LINE
  5
53D84
  8
0
 62
     0
 10
-11.698322744039411
 20
6.3033890851524319
 30
0.0
 11
-11.698322744039411
 21
6.3033890851524319
 31
0.0
  0
LINE
  5
53D85
  8
0
 62
     0
 10
-11.76461400477565
 20
6.2370978244161943
 30
0.0
 11
-11.76461400477565
 21
6.2370978244161943
 31
0.0
  0
LINE
  5
53D86
  8
0
 62
     0
 10
-11.830905265511889
 20
6.1708065636799549
 30
0.0
 11
-11.830905265511889
 21
6.1708065636799549
 31
0.0
  0
LINE
  5
53D87
  8
0
 62
     0
 10
-11.897196526248131
 20
6.1045153029437174
 30
0.0
 11
-11.897196526248131
 21
6.1045153029437174
 31
0.0
  0
LINE
  5
53D88
  8
0
 62
     0
 10
-11.96348778698437
 20
6.038224042207478
 30
0.0
 11
-11.96348778698437
 21
6.038224042207478
 31
0.0
  0
LINE
  5
53D89
  8
0
 62
     0
 10
-12.029779047720609
 20
5.9719327814712404
 30
0.0
 11
-12.029779047720609
 21
5.9719327814712404
 31
0.0
  0
LINE
  5
53D8A
  8
0
 62
     0
 10
-12.09607030845685
 20
5.905641520735001
 30
0.0
 11
-12.09607030845685
 21
5.905641520735001
 31
0.0
  0
LINE
  5
53D8B
  8
0
 62
     0
 10
-12.16236156919309
 20
5.8393502599987626
 30
0.0
 11
-12.16236156919309
 21
5.8393502599987626
 31
0.0
  0
LINE
  5
53D8C
  8
0
 62
     0
 10
-12.228652829929329
 20
5.7730589992625241
 30
0.0
 11
-12.228652829929329
 21
5.7730589992625241
 31
0.0
  0
LINE
  5
53D8D
  8
0
 62
     0
 10
-12.29494409066557
 20
5.7067677385262856
 30
0.0
 11
-12.29494409066557
 21
5.7067677385262856
 31
0.0
  0
LINE
  5
53D8E
  8
0
 62
     0
 10
-12.36123535140181
 20
5.640476477790048
 30
0.0
 11
-12.36123535140181
 21
5.640476477790048
 31
0.0
  0
LINE
  5
53D8F
  8
0
 62
     0
 10
-12.427526612138051
 20
5.5741852170538086
 30
0.0
 11
-12.427526612138051
 21
5.5741852170538086
 31
0.0
  0
LINE
  5
53D90
  8
0
 62
     0
 10
-12.493817872874279
 20
5.5078939563175711
 30
0.0
 11
-12.493817872874279
 21
5.5078939563175711
 31
0.0
  0
LINE
  5
53D91
  8
0
 62
     0
 10
-12.560109133610521
 20
5.4416026955813317
 30
0.0
 11
-12.560109133610521
 21
5.4416026955813317
 31
0.0
  0
LINE
  5
53D92
  8
0
 62
     0
 10
-12.62640039434676
 20
5.3753114348450941
 30
0.0
 11
-12.62640039434676
 21
5.3753114348450941
 31
0.0
  0
LINE
  5
53D93
  8
0
 62
     0
 10
-12.692691655082999
 20
5.3090201741088547
 30
0.0
 11
-12.692691655082999
 21
5.3090201741088547
 31
0.0
  0
LINE
  5
53D94
  8
0
 62
     0
 10
-12.75898291581924
 20
5.2427289133726171
 30
0.0
 11
-12.75898291581924
 21
5.2427289133726171
 31
0.0
  0
LINE
  5
53D95
  8
0
 62
     0
 10
-12.82527417655548
 20
5.1764376526363778
 30
0.0
 11
-12.82527417655548
 21
5.1764376526363778
 31
0.0
  0
LINE
  5
53D96
  8
0
 62
     0
 10
-12.891565437291719
 20
5.1101463919001402
 30
0.0
 11
-12.891565437291719
 21
5.1101463919001402
 31
0.0
  0
LINE
  5
53D97
  8
0
 62
     0
 10
-11.002264506308901
 20
7.1320298443554151
 30
0.0
 11
-11.002264506308901
 21
7.1320298443554151
 31
0.0
  0
LINE
  5
53D98
  8
0
 62
     0
 10
-11.06855576704514
 20
7.0657385836191757
 30
0.0
 11
-11.06855576704514
 21
7.0657385836191757
 31
0.0
  0
LINE
  5
53D99
  8
0
 62
     0
 10
-11.13484702778138
 20
6.9994473228829381
 30
0.0
 11
-11.13484702778138
 21
6.9994473228829381
 31
0.0
  0
LINE
  5
53D9A
  8
0
 62
     0
 10
-11.201138288517621
 20
6.9331560621466988
 30
0.0
 11
-11.201138288517621
 21
6.9331560621466988
 31
0.0
  0
LINE
  5
53D9B
  8
0
 62
     0
 10
-11.26742954925386
 20
6.8668648014104612
 30
0.0
 11
-11.26742954925386
 21
6.8668648014104612
 31
0.0
  0
LINE
  5
53D9C
  8
0
 62
     0
 10
-11.333720809990091
 20
6.8005735406742218
 30
0.0
 11
-11.333720809990091
 21
6.8005735406742218
 31
0.0
  0
LINE
  5
53D9D
  8
0
 62
     0
 10
-11.40001207072633
 20
6.7342822799379842
 30
0.0
 11
-11.40001207072633
 21
6.7342822799379842
 31
0.0
  0
LINE
  5
53D9E
  8
0
 62
     0
 10
-11.466303331462569
 20
6.6679910192017449
 30
0.0
 11
-11.466303331462569
 21
6.6679910192017449
 31
0.0
  0
LINE
  5
53D9F
  8
0
 62
     0
 10
-11.53259459219881
 20
6.6016997584655073
 30
0.0
 11
-11.53259459219881
 21
6.6016997584655073
 31
0.0
  0
LINE
  5
53DA0
  8
0
 62
     0
 10
-11.59888585293505
 20
6.5354084977292679
 30
0.0
 11
-11.59888585293505
 21
6.5354084977292679
 31
0.0
  0
LINE
  5
53DA1
  8
0
 62
     0
 10
-11.665177113671289
 20
6.4691172369930303
 30
0.0
 11
-11.665177113671289
 21
6.4691172369930303
 31
0.0
  0
LINE
  5
53DA2
  8
0
 62
     0
 10
-11.73146837440753
 20
6.402825976256791
 30
0.0
 11
-11.73146837440753
 21
6.402825976256791
 31
0.0
  0
LINE
  5
53DA3
  8
0
 62
     0
 10
-11.79775963514377
 20
6.3365347155205534
 30
0.0
 11
-11.79775963514377
 21
6.3365347155205534
 31
0.0
  0
LINE
  5
53DA4
  8
0
 62
     0
 10
-11.864050895880011
 20
6.270243454784314
 30
0.0
 11
-11.864050895880011
 21
6.270243454784314
 31
0.0
  0
LINE
  5
53DA5
  8
0
 62
     0
 10
-11.93034215661625
 20
6.2039521940480764
 30
0.0
 11
-11.93034215661625
 21
6.2039521940480764
 31
0.0
  0
LINE
  5
53DA6
  8
0
 62
     0
 10
-11.99663341735249
 20
6.137660933311837
 30
0.0
 11
-11.99663341735249
 21
6.137660933311837
 31
0.0
  0
LINE
  5
53DA7
  8
0
 62
     0
 10
-12.062924678088731
 20
6.0713696725755986
 30
0.0
 11
-12.062924678088731
 21
6.0713696725755986
 31
0.0
  0
LINE
  5
53DA8
  8
0
 62
     0
 10
-12.12921593882497
 20
6.0050784118393601
 30
0.0
 11
-12.12921593882497
 21
6.0050784118393601
 31
0.0
  0
LINE
  5
53DA9
  8
0
 62
     0
 10
-12.195507199561209
 20
5.9387871511031216
 30
0.0
 11
-12.195507199561209
 21
5.9387871511031216
 31
0.0
  0
LINE
  5
53DAA
  8
0
 62
     0
 10
-12.261798460297451
 20
5.872495890366884
 30
0.0
 11
-12.261798460297451
 21
5.872495890366884
 31
0.0
  0
LINE
  5
53DAB
  8
0
 62
     0
 10
-12.32808972103369
 20
5.8062046296306447
 30
0.0
 11
-12.32808972103369
 21
5.8062046296306447
 31
0.0
  0
LINE
  5
53DAC
  8
0
 62
     0
 10
-12.394380981769929
 20
5.7399133688944071
 30
0.0
 11
-12.394380981769929
 21
5.7399133688944071
 31
0.0
  0
LINE
  5
53DAD
  8
0
 62
     0
 10
-12.46067224250617
 20
5.6736221081581677
 30
0.0
 11
-12.46067224250617
 21
5.6736221081581677
 31
0.0
  0
LINE
  5
53DAE
  8
0
 62
     0
 10
-12.526963503242399
 20
5.6073308474219301
 30
0.0
 11
-12.526963503242399
 21
5.6073308474219301
 31
0.0
  0
LINE
  5
53DAF
  8
0
 62
     0
 10
-12.59325476397864
 20
5.5410395866856907
 30
0.0
 11
-12.59325476397864
 21
5.5410395866856907
 31
0.0
  0
LINE
  5
53DB0
  8
0
 62
     0
 10
-12.65954602471488
 20
5.4747483259494532
 30
0.0
 11
-12.65954602471488
 21
5.4747483259494532
 31
0.0
  0
LINE
  5
53DB1
  8
0
 62
     0
 10
-12.725837285451121
 20
5.4084570652132138
 30
0.0
 11
-12.725837285451121
 21
5.4084570652132138
 31
0.0
  0
LINE
  5
53DB2
  8
0
 62
     0
 10
-12.79212854618736
 20
5.3421658044769762
 30
0.0
 11
-12.79212854618736
 21
5.3421658044769762
 31
0.0
  0
LINE
  5
53DB3
  8
0
 62
     0
 10
-12.8584198069236
 20
5.2758745437407368
 30
0.0
 11
-12.8584198069236
 21
5.2758745437407368
 31
0.0
  0
LINE
  5
53DB4
  8
0
 62
     0
 10
-11.035410136677021
 20
7.2314667354597688
 30
0.0
 11
-11.035410136677021
 21
7.2314667354597688
 31
0.0
  0
LINE
  5
53DB5
  8
0
 62
     0
 10
-11.10170139741326
 20
7.1651754747235312
 30
0.0
 11
-11.10170139741326
 21
7.1651754747235312
 31
0.0
  0
LINE
  5
53DB6
  8
0
 62
     0
 10
-11.167992658149499
 20
7.0988842139872919
 30
0.0
 11
-11.167992658149499
 21
7.0988842139872919
 31
0.0
  0
LINE
  5
53DB7
  8
0
 62
     0
 10
-11.23428391888574
 20
7.0325929532510543
 30
0.0
 11
-11.23428391888574
 21
7.0325929532510543
 31
0.0
  0
LINE
  5
53DB8
  8
0
 62
     0
 10
-11.30057517962198
 20
6.9663016925148149
 30
0.0
 11
-11.30057517962198
 21
6.9663016925148149
 31
0.0
  0
LINE
  5
53DB9
  8
0
 62
     0
 10
-11.366866440358219
 20
6.9000104317785773
 30
0.0
 11
-11.366866440358219
 21
6.9000104317785773
 31
0.0
  0
LINE
  5
53DBA
  8
0
 62
     0
 10
-11.43315770109446
 20
6.8337191710423379
 30
0.0
 11
-11.43315770109446
 21
6.8337191710423379
 31
0.0
  0
LINE
  5
53DBB
  8
0
 62
     0
 10
-11.4994489618307
 20
6.7674279103061004
 30
0.0
 11
-11.4994489618307
 21
6.7674279103061004
 31
0.0
  0
LINE
  5
53DBC
  8
0
 62
     0
 10
-11.565740222566941
 20
6.701136649569861
 30
0.0
 11
-11.565740222566941
 21
6.701136649569861
 31
0.0
  0
LINE
  5
53DBD
  8
0
 62
     0
 10
-11.63203148330318
 20
6.6348453888336234
 30
0.0
 11
-11.63203148330318
 21
6.6348453888336234
 31
0.0
  0
LINE
  5
53DBE
  8
0
 62
     0
 10
-11.698322744039411
 20
6.568554128097384
 30
0.0
 11
-11.698322744039411
 21
6.568554128097384
 31
0.0
  0
LINE
  5
53DBF
  8
0
 62
     0
 10
-11.76461400477565
 20
6.5022628673611456
 30
0.0
 11
-11.76461400477565
 21
6.5022628673611456
 31
0.0
  0
LINE
  5
53DC0
  8
0
 62
     0
 10
-11.830905265511889
 20
6.4359716066249071
 30
0.0
 11
-11.830905265511889
 21
6.4359716066249071
 31
0.0
  0
LINE
  5
53DC1
  8
0
 62
     0
 10
-11.897196526248131
 20
6.3696803458886686
 30
0.0
 11
-11.897196526248131
 21
6.3696803458886686
 31
0.0
  0
LINE
  5
53DC2
  8
0
 62
     0
 10
-11.96348778698437
 20
6.303389085152431
 30
0.0
 11
-11.96348778698437
 21
6.303389085152431
 31
0.0
  0
LINE
  5
53DC3
  8
0
 62
     0
 10
-12.029779047720609
 20
6.2370978244161916
 30
0.0
 11
-12.029779047720609
 21
6.2370978244161916
 31
0.0
  0
LINE
  5
53DC4
  8
0
 62
     0
 10
-12.09607030845685
 20
6.1708065636799541
 30
0.0
 11
-12.09607030845685
 21
6.1708065636799541
 31
0.0
  0
LINE
  5
53DC5
  8
0
 62
     0
 10
-12.16236156919309
 20
6.1045153029437147
 30
0.0
 11
-12.16236156919309
 21
6.1045153029437147
 31
0.0
  0
LINE
  5
53DC6
  8
0
 62
     0
 10
-12.228652829929329
 20
6.0382240422074771
 30
0.0
 11
-12.228652829929329
 21
6.0382240422074771
 31
0.0
  0
LINE
  5
53DC7
  8
0
 62
     0
 10
-12.29494409066557
 20
5.9719327814712377
 30
0.0
 11
-12.29494409066557
 21
5.9719327814712377
 31
0.0
  0
LINE
  5
53DC8
  8
0
 62
     0
 10
-12.36123535140181
 20
5.9056415207350001
 30
0.0
 11
-12.36123535140181
 21
5.9056415207350001
 31
0.0
  0
LINE
  5
53DC9
  8
0
 62
     0
 10
-12.427526612138051
 20
5.8393502599987608
 30
0.0
 11
-12.427526612138051
 21
5.8393502599987608
 31
0.0
  0
LINE
  5
53DCA
  8
0
 62
     0
 10
-12.49381787287429
 20
5.7730589992625232
 30
0.0
 11
-12.49381787287429
 21
5.7730589992625232
 31
0.0
  0
LINE
  5
53DCB
  8
0
 62
     0
 10
-12.560109133610529
 20
5.7067677385262838
 30
0.0
 11
-12.560109133610529
 21
5.7067677385262838
 31
0.0
  0
LINE
  5
53DCC
  8
0
 62
     0
 10
-12.626400394346771
 20
5.6404764777900462
 30
0.0
 11
-12.626400394346771
 21
5.6404764777900462
 31
0.0
  0
LINE
  5
53DCD
  8
0
 62
     0
 10
-12.69269165508301
 20
5.5741852170538069
 30
0.0
 11
-12.69269165508301
 21
5.5741852170538069
 31
0.0
  0
LINE
  5
53DCE
  8
0
 62
     0
 10
-12.758982915819249
 20
5.5078939563175693
 30
0.0
 11
-12.758982915819249
 21
5.5078939563175693
 31
0.0
  0
LINE
  5
53DCF
  8
0
 62
     0
 10
-12.825274176555491
 20
5.4416026955813299
 30
0.0
 11
-12.825274176555491
 21
5.4416026955813299
 31
0.0
  0
LINE
  5
53DD0
  8
0
 62
     0
 10
-12.891565437291719
 20
5.3753114348450923
 30
0.0
 11
-12.891565437291719
 21
5.3753114348450923
 31
0.0
  0
LINE
  5
53DD1
  8
0
 62
     0
 10
-11.002264506308901
 20
7.3971948873003717
 30
0.0
 11
-11.002264506308901
 21
7.3971948873003717
 31
0.0
  0
LINE
  5
53DD2
  8
0
 62
     0
 10
-11.06855576704513
 20
7.3309036265641341
 30
0.0
 11
-11.06855576704513
 21
7.3309036265641341
 31
0.0
  0
LINE
  5
53DD3
  8
0
 62
     0
 10
-11.134847027781371
 20
7.2646123658278947
 30
0.0
 11
-11.134847027781371
 21
7.2646123658278947
 31
0.0
  0
LINE
  5
53DD4
  8
0
 62
     0
 10
-11.20113828851761
 20
7.1983211050916571
 30
0.0
 11
-11.20113828851761
 21
7.1983211050916571
 31
0.0
  0
LINE
  5
53DD5
  8
0
 62
     0
 10
-11.267429549253849
 20
7.1320298443554178
 30
0.0
 11
-11.267429549253849
 21
7.1320298443554178
 31
0.0
  0
LINE
  5
53DD6
  8
0
 62
     0
 10
-11.333720809990091
 20
7.0657385836191802
 30
0.0
 11
-11.333720809990091
 21
7.0657385836191802
 31
0.0
  0
LINE
  5
53DD7
  8
0
 62
     0
 10
-11.40001207072633
 20
6.9994473228829408
 30
0.0
 11
-11.40001207072633
 21
6.9994473228829408
 31
0.0
  0
LINE
  5
53DD8
  8
0
 62
     0
 10
-11.466303331462569
 20
6.9331560621467032
 30
0.0
 11
-11.466303331462569
 21
6.9331560621467032
 31
0.0
  0
LINE
  5
53DD9
  8
0
 62
     0
 10
-11.53259459219881
 20
6.8668648014104638
 30
0.0
 11
-11.53259459219881
 21
6.8668648014104638
 31
0.0
  0
LINE
  5
53DDA
  8
0
 62
     0
 10
-11.59888585293505
 20
6.8005735406742263
 30
0.0
 11
-11.59888585293505
 21
6.8005735406742263
 31
0.0
  0
LINE
  5
53DDB
  8
0
 62
     0
 10
-11.665177113671289
 20
6.7342822799379869
 30
0.0
 11
-11.665177113671289
 21
6.7342822799379869
 31
0.0
  0
LINE
  5
53DDC
  8
0
 62
     0
 10
-11.73146837440753
 20
6.6679910192017493
 30
0.0
 11
-11.73146837440753
 21
6.6679910192017493
 31
0.0
  0
LINE
  5
53DDD
  8
0
 62
     0
 10
-11.79775963514377
 20
6.6016997584655099
 30
0.0
 11
-11.79775963514377
 21
6.6016997584655099
 31
0.0
  0
LINE
  5
53DDE
  8
0
 62
     0
 10
-11.864050895880011
 20
6.5354084977292723
 30
0.0
 11
-11.864050895880011
 21
6.5354084977292723
 31
0.0
  0
LINE
  5
53DDF
  8
0
 62
     0
 10
-11.93034215661625
 20
6.469117236993033
 30
0.0
 11
-11.93034215661625
 21
6.469117236993033
 31
0.0
  0
LINE
  5
53DE0
  8
0
 62
     0
 10
-11.99663341735249
 20
6.4028259762567954
 30
0.0
 11
-11.99663341735249
 21
6.4028259762567954
 31
0.0
  0
LINE
  5
53DE1
  8
0
 62
     0
 10
-12.062924678088731
 20
6.336534715520556
 30
0.0
 11
-12.062924678088731
 21
6.336534715520556
 31
0.0
  0
LINE
  5
53DE2
  8
0
 62
     0
 10
-12.129215938824959
 20
6.2702434547843184
 30
0.0
 11
-12.129215938824959
 21
6.2702434547843184
 31
0.0
  0
LINE
  5
53DE3
  8
0
 62
     0
 10
-12.195507199561201
 20
6.2039521940480791
 30
0.0
 11
-12.195507199561201
 21
6.2039521940480791
 31
0.0
  0
LINE
  5
53DE4
  8
0
 62
     0
 10
-12.26179846029744
 20
6.1376609333118406
 30
0.0
 11
-12.26179846029744
 21
6.1376609333118406
 31
0.0
  0
LINE
  5
53DE5
  8
0
 62
     0
 10
-12.328089721033679
 20
6.071369672575603
 30
0.0
 11
-12.328089721033679
 21
6.071369672575603
 31
0.0
  0
LINE
  5
53DE6
  8
0
 62
     0
 10
-12.39438098176992
 20
6.0050784118393636
 30
0.0
 11
-12.39438098176992
 21
6.0050784118393636
 31
0.0
  0
LINE
  5
53DE7
  8
0
 62
     0
 10
-12.46067224250616
 20
5.938787151103126
 30
0.0
 11
-12.46067224250616
 21
5.938787151103126
 31
0.0
  0
LINE
  5
53DE8
  8
0
 62
     0
 10
-12.526963503242399
 20
5.8724958903668867
 30
0.0
 11
-12.526963503242399
 21
5.8724958903668867
 31
0.0
  0
LINE
  5
53DE9
  8
0
 62
     0
 10
-12.59325476397864
 20
5.8062046296306491
 30
0.0
 11
-12.59325476397864
 21
5.8062046296306491
 31
0.0
  0
LINE
  5
53DEA
  8
0
 62
     0
 10
-12.65954602471488
 20
5.7399133688944097
 30
0.0
 11
-12.65954602471488
 21
5.7399133688944097
 31
0.0
  0
LINE
  5
53DEB
  8
0
 62
     0
 10
-12.725837285451121
 20
5.6736221081581721
 30
0.0
 11
-12.725837285451121
 21
5.6736221081581721
 31
0.0
  0
LINE
  5
53DEC
  8
0
 62
     0
 10
-12.79212854618736
 20
5.6073308474219328
 30
0.0
 11
-12.79212854618736
 21
5.6073308474219328
 31
0.0
  0
LINE
  5
53DED
  8
0
 62
     0
 10
-12.8584198069236
 20
5.5410395866856952
 30
0.0
 11
-12.8584198069236
 21
5.5410395866856952
 31
0.0
  0
LINE
  5
53DEE
  8
0
 62
     0
 10
-11.03541013667701
 20
7.4966317784047316
 30
0.0
 11
-11.03541013667701
 21
7.4966317784047316
 31
0.0
  0
LINE
  5
53DEF
  8
0
 62
     0
 10
-11.101701397413249
 20
7.430340517668494
 30
0.0
 11
-11.101701397413249
 21
7.430340517668494
 31
0.0
  0
LINE
  5
53DF0
  8
0
 62
     0
 10
-11.16799265814949
 20
7.3640492569322547
 30
0.0
 11
-11.16799265814949
 21
7.3640492569322547
 31
0.0
  0
LINE
  5
53DF1
  8
0
 62
     0
 10
-11.23428391888573
 20
7.2977579961960171
 30
0.0
 11
-11.23428391888573
 21
7.2977579961960171
 31
0.0
  0
LINE
  5
53DF2
  8
0
 62
     0
 10
-11.300575179621969
 20
7.2314667354597777
 30
0.0
 11
-11.300575179621969
 21
7.2314667354597777
 31
0.0
  0
LINE
  5
53DF3
  8
0
 62
     0
 10
-11.36686644035821
 20
7.1651754747235401
 30
0.0
 11
-11.36686644035821
 21
7.1651754747235401
 31
0.0
  0
LINE
  5
53DF4
  8
0
 62
     0
 10
-11.43315770109445
 20
7.0988842139873007
 30
0.0
 11
-11.43315770109445
 21
7.0988842139873007
 31
0.0
  0
LINE
  5
53DF5
  8
0
 62
     0
 10
-11.499448961830691
 20
7.0325929532510632
 30
0.0
 11
-11.499448961830691
 21
7.0325929532510632
 31
0.0
  0
LINE
  5
53DF6
  8
0
 62
     0
 10
-11.56574022256693
 20
6.9663016925148238
 30
0.0
 11
-11.56574022256693
 21
6.9663016925148238
 31
0.0
  0
LINE
  5
53DF7
  8
0
 62
     0
 10
-11.632031483303169
 20
6.9000104317785862
 30
0.0
 11
-11.632031483303169
 21
6.9000104317785862
 31
0.0
  0
LINE
  5
53DF8
  8
0
 62
     0
 10
-11.698322744039411
 20
6.8337191710423468
 30
0.0
 11
-11.698322744039411
 21
6.8337191710423468
 31
0.0
  0
LINE
  5
53DF9
  8
0
 62
     0
 10
-11.76461400477565
 20
6.7674279103061092
 30
0.0
 11
-11.76461400477565
 21
6.7674279103061092
 31
0.0
  0
LINE
  5
53DFA
  8
0
 62
     0
 10
-11.830905265511889
 20
6.7011366495698699
 30
0.0
 11
-11.830905265511889
 21
6.7011366495698699
 31
0.0
  0
LINE
  5
53DFB
  8
0
 62
     0
 10
-11.897196526248131
 20
6.6348453888336323
 30
0.0
 11
-11.897196526248131
 21
6.6348453888336323
 31
0.0
  0
LINE
  5
53DFC
  8
0
 62
     0
 10
-11.96348778698437
 20
6.5685541280973929
 30
0.0
 11
-11.96348778698437
 21
6.5685541280973929
 31
0.0
  0
LINE
  5
53DFD
  8
0
 62
     0
 10
-12.029779047720609
 20
6.5022628673611553
 30
0.0
 11
-12.029779047720609
 21
6.5022628673611553
 31
0.0
  0
LINE
  5
53DFE
  8
0
 62
     0
 10
-12.09607030845684
 20
6.435971606624916
 30
0.0
 11
-12.09607030845684
 21
6.435971606624916
 31
0.0
  0
LINE
  5
53DFF
  8
0
 62
     0
 10
-12.162361569193081
 20
6.3696803458886784
 30
0.0
 11
-12.162361569193081
 21
6.3696803458886784
 31
0.0
  0
LINE
  5
53E00
  8
0
 62
     0
 10
-12.22865282992932
 20
6.303389085152439
 30
0.0
 11
-12.22865282992932
 21
6.303389085152439
 31
0.0
  0
LINE
  5
53E01
  8
0
 62
     0
 10
-12.29494409066556
 20
6.2370978244162014
 30
0.0
 11
-12.29494409066556
 21
6.2370978244162014
 31
0.0
  0
LINE
  5
53E02
  8
0
 62
     0
 10
-12.361235351401801
 20
6.1708065636799621
 30
0.0
 11
-12.361235351401801
 21
6.1708065636799621
 31
0.0
  0
LINE
  5
53E03
  8
0
 62
     0
 10
-12.42752661213804
 20
6.1045153029437236
 30
0.0
 11
-12.42752661213804
 21
6.1045153029437236
 31
0.0
  0
LINE
  5
53E04
  8
0
 62
     0
 10
-12.493817872874279
 20
6.0382240422074851
 30
0.0
 11
-12.493817872874279
 21
6.0382240422074851
 31
0.0
  0
LINE
  5
53E05
  8
0
 62
     0
 10
-12.560109133610521
 20
5.9719327814712466
 30
0.0
 11
-12.560109133610521
 21
5.9719327814712466
 31
0.0
  0
LINE
  5
53E06
  8
0
 62
     0
 10
-12.62640039434676
 20
5.905641520735009
 30
0.0
 11
-12.62640039434676
 21
5.905641520735009
 31
0.0
  0
LINE
  5
53E07
  8
0
 62
     0
 10
-12.692691655082999
 20
5.8393502599987697
 30
0.0
 11
-12.692691655082999
 21
5.8393502599987697
 31
0.0
  0
LINE
  5
53E08
  8
0
 62
     0
 10
-12.75898291581924
 20
5.7730589992625321
 30
0.0
 11
-12.75898291581924
 21
5.7730589992625321
 31
0.0
  0
LINE
  5
53E09
  8
0
 62
     0
 10
-12.82527417655548
 20
5.7067677385262927
 30
0.0
 11
-12.82527417655548
 21
5.7067677385262927
 31
0.0
  0
LINE
  5
53E0A
  8
0
 62
     0
 10
-12.891565437291719
 20
5.6404764777900551
 30
0.0
 11
-12.891565437291719
 21
5.6404764777900551
 31
0.0
  0
LINE
  5
53E0B
  8
0
 62
     0
 10
-11.002264506308901
 20
7.66235993024533
 30
0.0
 11
-11.002264506308901
 21
7.66235993024533
 31
0.0
  0
LINE
  5
53E0C
  8
0
 62
     0
 10
-11.06855576704513
 20
7.5960686695090907
 30
0.0
 11
-11.06855576704513
 21
7.5960686695090907
 31
0.0
  0
LINE
  5
53E0D
  8
0
 62
     0
 10
-11.134847027781371
 20
7.5297774087728531
 30
0.0
 11
-11.134847027781371
 21
7.5297774087728531
 31
0.0
  0
LINE
  5
53E0E
  8
0
 62
     0
 10
-11.20113828851761
 20
7.4634861480366137
 30
0.0
 11
-11.20113828851761
 21
7.4634861480366137
 31
0.0
  0
LINE
  5
53E0F
  8
0
 62
     0
 10
-11.267429549253849
 20
7.3971948873003761
 30
0.0
 11
-11.267429549253849
 21
7.3971948873003761
 31
0.0
  0
LINE
  5
53E10
  8
0
 62
     0
 10
-11.333720809990091
 20
7.3309036265641367
 30
0.0
 11
-11.333720809990091
 21
7.3309036265641367
 31
0.0
  0
LINE
  5
53E11
  8
0
 62
     0
 10
-11.40001207072633
 20
7.2646123658278992
 30
0.0
 11
-11.40001207072633
 21
7.2646123658278992
 31
0.0
  0
LINE
  5
53E12
  8
0
 62
     0
 10
-11.466303331462569
 20
7.1983211050916598
 30
0.0
 11
-11.466303331462569
 21
7.1983211050916598
 31
0.0
  0
LINE
  5
53E13
  8
0
 62
     0
 10
-11.53259459219881
 20
7.1320298443554222
 30
0.0
 11
-11.53259459219881
 21
7.1320298443554222
 31
0.0
  0
LINE
  5
53E14
  8
0
 62
     0
 10
-11.59888585293505
 20
7.0657385836191828
 30
0.0
 11
-11.59888585293505
 21
7.0657385836191828
 31
0.0
  0
LINE
  5
53E15
  8
0
 62
     0
 10
-11.665177113671289
 20
6.9994473228829452
 30
0.0
 11
-11.665177113671289
 21
6.9994473228829452
 31
0.0
  0
LINE
  5
53E16
  8
0
 62
     0
 10
-11.73146837440753
 20
6.9331560621467059
 30
0.0
 11
-11.73146837440753
 21
6.9331560621467059
 31
0.0
  0
LINE
  5
53E17
  8
0
 62
     0
 10
-11.79775963514377
 20
6.8668648014104683
 30
0.0
 11
-11.79775963514377
 21
6.8668648014104683
 31
0.0
  0
LINE
  5
53E18
  8
0
 62
     0
 10
-11.864050895880011
 20
6.8005735406742289
 30
0.0
 11
-11.864050895880011
 21
6.8005735406742289
 31
0.0
  0
LINE
  5
53E19
  8
0
 62
     0
 10
-11.93034215661625
 20
6.7342822799379913
 30
0.0
 11
-11.93034215661625
 21
6.7342822799379913
 31
0.0
  0
LINE
  5
53E1A
  8
0
 62
     0
 10
-11.99663341735249
 20
6.667991019201752
 30
0.0
 11
-11.99663341735249
 21
6.667991019201752
 31
0.0
  0
LINE
  5
53E1B
  8
0
 62
     0
 10
-12.062924678088731
 20
6.6016997584655144
 30
0.0
 11
-12.062924678088731
 21
6.6016997584655144
 31
0.0
  0
LINE
  5
53E1C
  8
0
 62
     0
 10
-12.129215938824959
 20
6.535408497729275
 30
0.0
 11
-12.129215938824959
 21
6.535408497729275
 31
0.0
  0
LINE
  5
53E1D
  8
0
 62
     0
 10
-12.195507199561201
 20
6.4691172369930374
 30
0.0
 11
-12.195507199561201
 21
6.4691172369930374
 31
0.0
  0
LINE
  5
53E1E
  8
0
 62
     0
 10
-12.26179846029744
 20
6.4028259762567981
 30
0.0
 11
-12.26179846029744
 21
6.4028259762567981
 31
0.0
  0
LINE
  5
53E1F
  8
0
 62
     0
 10
-12.328089721033679
 20
6.3365347155205596
 30
0.0
 11
-12.328089721033679
 21
6.3365347155205596
 31
0.0
  0
LINE
  5
53E20
  8
0
 62
     0
 10
-12.39438098176992
 20
6.2702434547843211
 30
0.0
 11
-12.39438098176992
 21
6.2702434547843211
 31
0.0
  0
LINE
  5
53E21
  8
0
 62
     0
 10
-12.46067224250616
 20
6.2039521940480826
 30
0.0
 11
-12.46067224250616
 21
6.2039521940480826
 31
0.0
  0
LINE
  5
53E22
  8
0
 62
     0
 10
-12.526963503242399
 20
6.137660933311845
 30
0.0
 11
-12.526963503242399
 21
6.137660933311845
 31
0.0
  0
LINE
  5
53E23
  8
0
 62
     0
 10
-12.59325476397864
 20
6.0713696725756057
 30
0.0
 11
-12.59325476397864
 21
6.0713696725756057
 31
0.0
  0
LINE
  5
53E24
  8
0
 62
     0
 10
-12.65954602471488
 20
6.0050784118393681
 30
0.0
 11
-12.65954602471488
 21
6.0050784118393681
 31
0.0
  0
LINE
  5
53E25
  8
0
 62
     0
 10
-12.725837285451121
 20
5.9387871511031287
 30
0.0
 11
-12.725837285451121
 21
5.9387871511031287
 31
0.0
  0
LINE
  5
53E26
  8
0
 62
     0
 10
-12.79212854618736
 20
5.8724958903668911
 30
0.0
 11
-12.79212854618736
 21
5.8724958903668911
 31
0.0
  0
LINE
  5
53E27
  8
0
 62
     0
 10
-12.8584198069236
 20
5.8062046296306518
 30
0.0
 11
-12.8584198069236
 21
5.8062046296306518
 31
0.0
  0
LINE
  5
53E28
  8
0
 62
     0
 10
-11.035410136677021
 20
7.761796821349682
 30
0.0
 11
-11.035410136677021
 21
7.761796821349682
 31
0.0
  0
LINE
  5
53E29
  8
0
 62
     0
 10
-11.10170139741326
 20
7.6955055606134444
 30
0.0
 11
-11.10170139741326
 21
7.6955055606134444
 31
0.0
  0
LINE
  5
53E2A
  8
0
 62
     0
 10
-11.167992658149499
 20
7.629214299877205
 30
0.0
 11
-11.167992658149499
 21
7.629214299877205
 31
0.0
  0
LINE
  5
53E2B
  8
0
 62
     0
 10
-11.23428391888574
 20
7.5629230391409674
 30
0.0
 11
-11.23428391888574
 21
7.5629230391409674
 31
0.0
  0
LINE
  5
53E2C
  8
0
 62
     0
 10
-11.30057517962198
 20
7.4966317784047281
 30
0.0
 11
-11.30057517962198
 21
7.4966317784047281
 31
0.0
  0
LINE
  5
53E2D
  8
0
 62
     0
 10
-11.366866440358219
 20
7.4303405176684896
 30
0.0
 11
-11.366866440358219
 21
7.4303405176684896
 31
0.0
  0
LINE
  5
53E2E
  8
0
 62
     0
 10
-11.43315770109445
 20
7.3640492569322511
 30
0.0
 11
-11.43315770109445
 21
7.3640492569322511
 31
0.0
  0
LINE
  5
53E2F
  8
0
 62
     0
 10
-11.499448961830691
 20
7.2977579961960126
 30
0.0
 11
-11.499448961830691
 21
7.2977579961960126
 31
0.0
  0
LINE
  5
53E30
  8
0
 62
     0
 10
-11.56574022256693
 20
7.231466735459775
 30
0.0
 11
-11.56574022256693
 21
7.231466735459775
 31
0.0
  0
LINE
  5
53E31
  8
0
 62
     0
 10
-11.632031483303169
 20
7.1651754747235357
 30
0.0
 11
-11.632031483303169
 21
7.1651754747235357
 31
0.0
  0
LINE
  5
53E32
  8
0
 62
     0
 10
-11.698322744039411
 20
7.0988842139872981
 30
0.0
 11
-11.698322744039411
 21
7.0988842139872981
 31
0.0
  0
LINE
  5
53E33
  8
0
 62
     0
 10
-11.76461400477565
 20
7.0325929532510587
 30
0.0
 11
-11.76461400477565
 21
7.0325929532510587
 31
0.0
  0
LINE
  5
53E34
  8
0
 62
     0
 10
-11.830905265511889
 20
6.9663016925148211
 30
0.0
 11
-11.830905265511889
 21
6.9663016925148211
 31
0.0
  0
LINE
  5
53E35
  8
0
 62
     0
 10
-11.897196526248131
 20
6.9000104317785818
 30
0.0
 11
-11.897196526248131
 21
6.9000104317785818
 31
0.0
  0
LINE
  5
53E36
  8
0
 62
     0
 10
-11.96348778698437
 20
6.8337191710423442
 30
0.0
 11
-11.96348778698437
 21
6.8337191710423442
 31
0.0
  0
LINE
  5
53E37
  8
0
 62
     0
 10
-12.029779047720609
 20
6.7674279103061048
 30
0.0
 11
-12.029779047720609
 21
6.7674279103061048
 31
0.0
  0
LINE
  5
53E38
  8
0
 62
     0
 10
-12.09607030845685
 20
6.7011366495698672
 30
0.0
 11
-12.09607030845685
 21
6.7011366495698672
 31
0.0
  0
LINE
  5
53E39
  8
0
 62
     0
 10
-12.16236156919309
 20
6.6348453888336278
 30
0.0
 11
-12.16236156919309
 21
6.6348453888336278
 31
0.0
  0
LINE
  5
53E3A
  8
0
 62
     0
 10
-12.228652829929329
 20
6.5685541280973903
 30
0.0
 11
-12.228652829929329
 21
6.5685541280973903
 31
0.0
  0
LINE
  5
53E3B
  8
0
 62
     0
 10
-12.29494409066557
 20
6.5022628673611509
 30
0.0
 11
-12.29494409066557
 21
6.5022628673611509
 31
0.0
  0
LINE
  5
53E3C
  8
0
 62
     0
 10
-12.36123535140181
 20
6.4359716066249133
 30
0.0
 11
-12.36123535140181
 21
6.4359716066249133
 31
0.0
  0
LINE
  5
53E3D
  8
0
 62
     0
 10
-12.427526612138051
 20
6.3696803458886739
 30
0.0
 11
-12.427526612138051
 21
6.3696803458886739
 31
0.0
  0
LINE
  5
53E3E
  8
0
 62
     0
 10
-12.493817872874279
 20
6.3033890851524363
 30
0.0
 11
-12.493817872874279
 21
6.3033890851524363
 31
0.0
  0
LINE
  5
53E3F
  8
0
 62
     0
 10
-12.560109133610521
 20
6.237097824416197
 30
0.0
 11
-12.560109133610521
 21
6.237097824416197
 31
0.0
  0
LINE
  5
53E40
  8
0
 62
     0
 10
-12.62640039434676
 20
6.1708065636799594
 30
0.0
 11
-12.62640039434676
 21
6.1708065636799594
 31
0.0
  0
LINE
  5
53E41
  8
0
 62
     0
 10
-12.692691655082999
 20
6.10451530294372
 30
0.0
 11
-12.692691655082999
 21
6.10451530294372
 31
0.0
  0
LINE
  5
53E42
  8
0
 62
     0
 10
-12.75898291581924
 20
6.0382240422074824
 30
0.0
 11
-12.75898291581924
 21
6.0382240422074824
 31
0.0
  0
LINE
  5
53E43
  8
0
 62
     0
 10
-12.82527417655548
 20
5.9719327814712431
 30
0.0
 11
-12.82527417655548
 21
5.9719327814712431
 31
0.0
  0
LINE
  5
53E44
  8
0
 62
     0
 10
-12.891565437291719
 20
5.9056415207350046
 30
0.0
 11
-12.891565437291719
 21
5.9056415207350046
 31
0.0
  0
LINE
  5
53E45
  8
0
 62
     0
 10
-11.00226450630889
 20
7.9275249731902822
 30
0.0
 11
-11.00226450630889
 21
7.9275249731902822
 31
0.0
  0
LINE
  5
53E46
  8
0
 62
     0
 10
-11.06855576704513
 20
7.8612337124540428
 30
0.0
 11
-11.06855576704513
 21
7.8612337124540428
 31
0.0
  0
LINE
  5
53E47
  8
0
 62
     0
 10
-11.134847027781371
 20
7.7949424517178052
 30
0.0
 11
-11.134847027781371
 21
7.7949424517178052
 31
0.0
  0
LINE
  5
53E48
  8
0
 62
     0
 10
-11.20113828851761
 20
7.7286511909815658
 30
0.0
 11
-11.20113828851761
 21
7.7286511909815658
 31
0.0
  0
LINE
  5
53E49
  8
0
 62
     0
 10
-11.267429549253849
 20
7.6623599302453282
 30
0.0
 11
-11.267429549253849
 21
7.6623599302453282
 31
0.0
  0
LINE
  5
53E4A
  8
0
 62
     0
 10
-11.333720809990091
 20
7.5960686695090889
 30
0.0
 11
-11.333720809990091
 21
7.5960686695090889
 31
0.0
  0
LINE
  5
53E4B
  8
0
 62
     0
 10
-11.40001207072633
 20
7.5297774087728513
 30
0.0
 11
-11.40001207072633
 21
7.5297774087728513
 31
0.0
  0
LINE
  5
53E4C
  8
0
 62
     0
 10
-11.466303331462569
 20
7.4634861480366119
 30
0.0
 11
-11.466303331462569
 21
7.4634861480366119
 31
0.0
  0
LINE
  5
53E4D
  8
0
 62
     0
 10
-11.53259459219881
 20
7.3971948873003743
 30
0.0
 11
-11.53259459219881
 21
7.3971948873003743
 31
0.0
  0
LINE
  5
53E4E
  8
0
 62
     0
 10
-11.59888585293505
 20
7.330903626564135
 30
0.0
 11
-11.59888585293505
 21
7.330903626564135
 31
0.0
  0
LINE
  5
53E4F
  8
0
 62
     0
 10
-11.665177113671289
 20
7.2646123658278974
 30
0.0
 11
-11.665177113671289
 21
7.2646123658278974
 31
0.0
  0
LINE
  5
53E50
  8
0
 62
     0
 10
-11.73146837440753
 20
7.198321105091658
 30
0.0
 11
-11.73146837440753
 21
7.198321105091658
 31
0.0
  0
LINE
  5
53E51
  8
0
 62
     0
 10
-11.797759635143761
 20
7.1320298443554204
 30
0.0
 11
-11.797759635143761
 21
7.1320298443554204
 31
0.0
  0
LINE
  5
53E52
  8
0
 62
     0
 10
-11.86405089588
 20
7.0657385836191811
 30
0.0
 11
-11.86405089588
 21
7.0657385836191811
 31
0.0
  0
LINE
  5
53E53
  8
0
 62
     0
 10
-11.93034215661624
 20
6.9994473228829426
 30
0.0
 11
-11.93034215661624
 21
6.9994473228829426
 31
0.0
  0
LINE
  5
53E54
  8
0
 62
     0
 10
-11.996633417352481
 20
6.9331560621467041
 30
0.0
 11
-11.996633417352481
 21
6.9331560621467041
 31
0.0
  0
LINE
  5
53E55
  8
0
 62
     0
 10
-12.06292467808872
 20
6.8668648014104656
 30
0.0
 11
-12.06292467808872
 21
6.8668648014104656
 31
0.0
  0
LINE
  5
53E56
  8
0
 62
     0
 10
-12.129215938824959
 20
6.800573540674228
 30
0.0
 11
-12.129215938824959
 21
6.800573540674228
 31
0.0
  0
LINE
  5
53E57
  8
0
 62
     0
 10
-12.195507199561201
 20
6.7342822799379887
 30
0.0
 11
-12.195507199561201
 21
6.7342822799379887
 31
0.0
  0
LINE
  5
53E58
  8
0
 62
     0
 10
-12.26179846029744
 20
6.6679910192017511
 30
0.0
 11
-12.26179846029744
 21
6.6679910192017511
 31
0.0
  0
LINE
  5
53E59
  8
0
 62
     0
 10
-12.328089721033679
 20
6.6016997584655117
 30
0.0
 11
-12.328089721033679
 21
6.6016997584655117
 31
0.0
  0
LINE
  5
53E5A
  8
0
 62
     0
 10
-12.39438098176992
 20
6.5354084977292741
 30
0.0
 11
-12.39438098176992
 21
6.5354084977292741
 31
0.0
  0
LINE
  5
53E5B
  8
0
 62
     0
 10
-12.46067224250616
 20
6.4691172369930348
 30
0.0
 11
-12.46067224250616
 21
6.4691172369930348
 31
0.0
  0
LINE
  5
53E5C
  8
0
 62
     0
 10
-12.526963503242399
 20
6.4028259762567972
 30
0.0
 11
-12.526963503242399
 21
6.4028259762567972
 31
0.0
  0
LINE
  5
53E5D
  8
0
 62
     0
 10
-12.59325476397864
 20
6.3365347155205578
 30
0.0
 11
-12.59325476397864
 21
6.3365347155205578
 31
0.0
  0
LINE
  5
53E5E
  8
0
 62
     0
 10
-12.65954602471488
 20
6.2702434547843202
 30
0.0
 11
-12.65954602471488
 21
6.2702434547843202
 31
0.0
  0
LINE
  5
53E5F
  8
0
 62
     0
 10
-12.725837285451121
 20
6.2039521940480808
 30
0.0
 11
-12.725837285451121
 21
6.2039521940480808
 31
0.0
  0
LINE
  5
53E60
  8
0
 62
     0
 10
-12.79212854618736
 20
6.1376609333118433
 30
0.0
 11
-12.79212854618736
 21
6.1376609333118433
 31
0.0
  0
LINE
  5
53E61
  8
0
 62
     0
 10
-12.858419806923591
 20
6.0713696725756039
 30
0.0
 11
-12.858419806923591
 21
6.0713696725756039
 31
0.0
  0
LINE
  5
53E62
  8
0
 62
     0
 10
-11.035410136677021
 20
8.0269618642946412
 30
0.0
 11
-11.035410136677021
 21
8.0269618642946412
 31
0.0
  0
LINE
  5
53E63
  8
0
 62
     0
 10
-11.10170139741326
 20
7.9606706035584018
 30
0.0
 11
-11.10170139741326
 21
7.9606706035584018
 31
0.0
  0
LINE
  5
53E64
  8
0
 62
     0
 10
-11.16799265814949
 20
7.8943793428221642
 30
0.0
 11
-11.16799265814949
 21
7.8943793428221642
 31
0.0
  0
LINE
  5
53E65
  8
0
 62
     0
 10
-11.23428391888573
 20
7.8280880820859249
 30
0.0
 11
-11.23428391888573
 21
7.8280880820859249
 31
0.0
  0
LINE
  5
53E66
  8
0
 62
     0
 10
-11.300575179621969
 20
7.7617968213496873
 30
0.0
 11
-11.300575179621969
 21
7.7617968213496873
 31
0.0
  0
LINE
  5
53E67
  8
0
 62
     0
 10
-11.36686644035821
 20
7.6955055606134479
 30
0.0
 11
-11.36686644035821
 21
7.6955055606134479
 31
0.0
  0
LINE
  5
53E68
  8
0
 62
     0
 10
-11.43315770109445
 20
7.6292142998772103
 30
0.0
 11
-11.43315770109445
 21
7.6292142998772103
 31
0.0
  0
LINE
  5
53E69
  8
0
 62
     0
 10
-11.499448961830691
 20
7.562923039140971
 30
0.0
 11
-11.499448961830691
 21
7.562923039140971
 31
0.0
  0
LINE
  5
53E6A
  8
0
 62
     0
 10
-11.56574022256693
 20
7.4966317784047334
 30
0.0
 11
-11.56574022256693
 21
7.4966317784047334
 31
0.0
  0
LINE
  5
53E6B
  8
0
 62
     0
 10
-11.632031483303169
 20
7.430340517668494
 30
0.0
 11
-11.632031483303169
 21
7.430340517668494
 31
0.0
  0
LINE
  5
53E6C
  8
0
 62
     0
 10
-11.698322744039411
 20
7.3640492569322564
 30
0.0
 11
-11.698322744039411
 21
7.3640492569322564
 31
0.0
  0
LINE
  5
53E6D
  8
0
 62
     0
 10
-11.76461400477565
 20
7.2977579961960171
 30
0.0
 11
-11.76461400477565
 21
7.2977579961960171
 31
0.0
  0
LINE
  5
53E6E
  8
0
 62
     0
 10
-11.830905265511889
 20
7.2314667354597786
 30
0.0
 11
-11.830905265511889
 21
7.2314667354597786
 31
0.0
  0
LINE
  5
53E6F
  8
0
 62
     0
 10
-11.897196526248131
 20
7.1651754747235401
 30
0.0
 11
-11.897196526248131
 21
7.1651754747235401
 31
0.0
  0
LINE
  5
53E70
  8
0
 62
     0
 10
-11.96348778698437
 20
7.0988842139873016
 30
0.0
 11
-11.96348778698437
 21
7.0988842139873016
 31
0.0
  0
LINE
  5
53E71
  8
0
 62
     0
 10
-12.029779047720609
 20
7.032592953251064
 30
0.0
 11
-12.029779047720609
 21
7.032592953251064
 31
0.0
  0
LINE
  5
53E72
  8
0
 62
     0
 10
-12.09607030845685
 20
6.9663016925148247
 30
0.0
 11
-12.09607030845685
 21
6.9663016925148247
 31
0.0
  0
LINE
  5
53E73
  8
0
 62
     0
 10
-12.16236156919309
 20
6.9000104317785871
 30
0.0
 11
-12.16236156919309
 21
6.9000104317785871
 31
0.0
  0
LINE
  5
53E74
  8
0
 62
     0
 10
-12.22865282992932
 20
6.8337191710423477
 30
0.0
 11
-12.22865282992932
 21
6.8337191710423477
 31
0.0
  0
LINE
  5
53E75
  8
0
 62
     0
 10
-12.29494409066556
 20
6.7674279103061101
 30
0.0
 11
-12.29494409066556
 21
6.7674279103061101
 31
0.0
  0
LINE
  5
53E76
  8
0
 62
     0
 10
-12.361235351401801
 20
6.7011366495698708
 30
0.0
 11
-12.361235351401801
 21
6.7011366495698708
 31
0.0
  0
LINE
  5
53E77
  8
0
 62
     0
 10
-12.42752661213804
 20
6.6348453888336332
 30
0.0
 11
-12.42752661213804
 21
6.6348453888336332
 31
0.0
  0
LINE
  5
53E78
  8
0
 62
     0
 10
-12.493817872874279
 20
6.5685541280973938
 30
0.0
 11
-12.493817872874279
 21
6.5685541280973938
 31
0.0
  0
LINE
  5
53E79
  8
0
 62
     0
 10
-12.560109133610521
 20
6.5022628673611562
 30
0.0
 11
-12.560109133610521
 21
6.5022628673611562
 31
0.0
  0
LINE
  5
53E7A
  8
0
 62
     0
 10
-12.62640039434676
 20
6.4359716066249169
 30
0.0
 11
-12.62640039434676
 21
6.4359716066249169
 31
0.0
  0
LINE
  5
53E7B
  8
0
 62
     0
 10
-12.692691655082999
 20
6.3696803458886793
 30
0.0
 11
-12.692691655082999
 21
6.3696803458886793
 31
0.0
  0
LINE
  5
53E7C
  8
0
 62
     0
 10
-12.75898291581924
 20
6.3033890851524399
 30
0.0
 11
-12.75898291581924
 21
6.3033890851524399
 31
0.0
  0
LINE
  5
53E7D
  8
0
 62
     0
 10
-12.82527417655548
 20
6.2370978244162023
 30
0.0
 11
-12.82527417655548
 21
6.2370978244162023
 31
0.0
  0
LINE
  5
53E7E
  8
0
 62
     0
 10
-12.891565437291719
 20
6.1708065636799629
 30
0.0
 11
-12.891565437291719
 21
6.1708065636799629
 31
0.0
  0
LINE
  5
53E7F
  8
0
 62
     0
 10
-11.002264506308901
 20
8.1926900161352361
 30
0.0
 11
-11.002264506308901
 21
8.1926900161352361
 31
0.0
  0
LINE
  5
53E80
  8
0
 62
     0
 10
-11.06855576704514
 20
8.1263987553989967
 30
0.0
 11
-11.06855576704514
 21
8.1263987553989967
 31
0.0
  0
LINE
  5
53E81
  8
0
 62
     0
 10
-11.13484702778138
 20
8.0601074946627573
 30
0.0
 11
-11.13484702778138
 21
8.0601074946627573
 31
0.0
  0
LINE
  5
53E82
  8
0
 62
     0
 10
-11.201138288517621
 20
7.993816233926518
 30
0.0
 11
-11.201138288517621
 21
7.993816233926518
 31
0.0
  0
LINE
  5
53E83
  8
0
 62
     0
 10
-11.26742954925386
 20
7.9275249731902804
 30
0.0
 11
-11.26742954925386
 21
7.9275249731902804
 31
0.0
  0
LINE
  5
53E84
  8
0
 62
     0
 10
-11.333720809990091
 20
7.861233712454041
 30
0.0
 11
-11.333720809990091
 21
7.861233712454041
 31
0.0
  0
LINE
  5
53E85
  8
0
 62
     0
 10
-11.40001207072633
 20
7.7949424517178034
 30
0.0
 11
-11.40001207072633
 21
7.7949424517178034
 31
0.0
  0
LINE
  5
53E86
  8
0
 62
     0
 10
-11.466303331462569
 20
7.7286511909815641
 30
0.0
 11
-11.466303331462569
 21
7.7286511909815641
 31
0.0
  0
LINE
  5
53E87
  8
0
 62
     0
 10
-11.53259459219881
 20
7.6623599302453256
 30
0.0
 11
-11.53259459219881
 21
7.6623599302453256
 31
0.0
  0
LINE
  5
53E88
  8
0
 62
     0
 10
-11.59888585293505
 20
7.5960686695090871
 30
0.0
 11
-11.59888585293505
 21
7.5960686695090871
 31
0.0
  0
LINE
  5
53E89
  8
0
 62
     0
 10
-11.665177113671289
 20
7.5297774087728486
 30
0.0
 11
-11.665177113671289
 21
7.5297774087728486
 31
0.0
  0
LINE
  5
53E8A
  8
0
 62
     0
 10
-11.73146837440753
 20
7.463486148036611
 30
0.0
 11
-11.73146837440753
 21
7.463486148036611
 31
0.0
  0
LINE
  5
53E8B
  8
0
 62
     0
 10
-11.79775963514377
 20
7.3971948873003717
 30
0.0
 11
-11.79775963514377
 21
7.3971948873003717
 31
0.0
  0
LINE
  5
53E8C
  8
0
 62
     0
 10
-11.864050895880011
 20
7.3309036265641341
 30
0.0
 11
-11.864050895880011
 21
7.3309036265641341
 31
0.0
  0
LINE
  5
53E8D
  8
0
 62
     0
 10
-11.93034215661625
 20
7.2646123658278947
 30
0.0
 11
-11.93034215661625
 21
7.2646123658278947
 31
0.0
  0
LINE
  5
53E8E
  8
0
 62
     0
 10
-11.99663341735249
 20
7.1983211050916571
 30
0.0
 11
-11.99663341735249
 21
7.1983211050916571
 31
0.0
  0
LINE
  5
53E8F
  8
0
 62
     0
 10
-12.062924678088731
 20
7.1320298443554178
 30
0.0
 11
-12.062924678088731
 21
7.1320298443554178
 31
0.0
  0
LINE
  5
53E90
  8
0
 62
     0
 10
-12.12921593882497
 20
7.0657385836191802
 30
0.0
 11
-12.12921593882497
 21
7.0657385836191802
 31
0.0
  0
LINE
  5
53E91
  8
0
 62
     0
 10
-12.195507199561209
 20
6.9994473228829408
 30
0.0
 11
-12.195507199561209
 21
6.9994473228829408
 31
0.0
  0
LINE
  5
53E92
  8
0
 62
     0
 10
-12.261798460297451
 20
6.9331560621467032
 30
0.0
 11
-12.261798460297451
 21
6.9331560621467032
 31
0.0
  0
LINE
  5
53E93
  8
0
 62
     0
 10
-12.32808972103369
 20
6.8668648014104638
 30
0.0
 11
-12.32808972103369
 21
6.8668648014104638
 31
0.0
  0
LINE
  5
53E94
  8
0
 62
     0
 10
-12.394380981769929
 20
6.8005735406742263
 30
0.0
 11
-12.394380981769929
 21
6.8005735406742263
 31
0.0
  0
LINE
  5
53E95
  8
0
 62
     0
 10
-12.46067224250617
 20
6.7342822799379869
 30
0.0
 11
-12.46067224250617
 21
6.7342822799379869
 31
0.0
  0
LINE
  5
53E96
  8
0
 62
     0
 10
-12.526963503242399
 20
6.6679910192017493
 30
0.0
 11
-12.526963503242399
 21
6.6679910192017493
 31
0.0
  0
LINE
  5
53E97
  8
0
 62
     0
 10
-12.59325476397864
 20
6.6016997584655099
 30
0.0
 11
-12.59325476397864
 21
6.6016997584655099
 31
0.0
  0
LINE
  5
53E98
  8
0
 62
     0
 10
-12.65954602471488
 20
6.5354084977292723
 30
0.0
 11
-12.65954602471488
 21
6.5354084977292723
 31
0.0
  0
LINE
  5
53E99
  8
0
 62
     0
 10
-12.725837285451121
 20
6.469117236993033
 30
0.0
 11
-12.725837285451121
 21
6.469117236993033
 31
0.0
  0
LINE
  5
53E9A
  8
0
 62
     0
 10
-12.79212854618736
 20
6.4028259762567954
 30
0.0
 11
-12.79212854618736
 21
6.4028259762567954
 31
0.0
  0
LINE
  5
53E9B
  8
0
 62
     0
 10
-12.8584198069236
 20
6.336534715520556
 30
0.0
 11
-12.8584198069236
 21
6.336534715520556
 31
0.0
  0
LINE
  5
53E9C
  8
0
 62
     0
 10
-11.03541013667701
 20
8.2921269072396022
 30
0.0
 11
-11.03541013667701
 21
8.2921269072396022
 31
0.0
  0
LINE
  5
53E9D
  8
0
 62
     0
 10
-11.101701397413249
 20
8.2258356465033629
 30
0.0
 11
-11.101701397413249
 21
8.2258356465033629
 31
0.0
  0
LINE
  5
53E9E
  8
0
 62
     0
 10
-11.16799265814949
 20
8.1595443857671235
 30
0.0
 11
-11.16799265814949
 21
8.1595443857671235
 31
0.0
  0
LINE
  5
53E9F
  8
0
 62
     0
 10
-11.23428391888573
 20
8.0932531250308841
 30
0.0
 11
-11.23428391888573
 21
8.0932531250308841
 31
0.0
  0
LINE
  5
53EA0
  8
0
 62
     0
 10
-11.300575179621969
 20
8.0269618642946448
 30
0.0
 11
-11.300575179621969
 21
8.0269618642946448
 31
0.0
  0
LINE
  5
53EA1
  8
0
 62
     0
 10
-11.36686644035821
 20
7.9606706035584063
 30
0.0
 11
-11.36686644035821
 21
7.9606706035584063
 31
0.0
  0
LINE
  5
53EA2
  8
0
 62
     0
 10
-11.43315770109445
 20
7.8943793428221669
 30
0.0
 11
-11.43315770109445
 21
7.8943793428221669
 31
0.0
  0
LINE
  5
53EA3
  8
0
 62
     0
 10
-11.499448961830691
 20
7.8280880820859293
 30
0.0
 11
-11.499448961830691
 21
7.8280880820859293
 31
0.0
  0
LINE
  5
53EA4
  8
0
 62
     0
 10
-11.56574022256693
 20
7.76179682134969
 30
0.0
 11
-11.56574022256693
 21
7.76179682134969
 31
0.0
  0
LINE
  5
53EA5
  8
0
 62
     0
 10
-11.632031483303169
 20
7.6955055606134524
 30
0.0
 11
-11.632031483303169
 21
7.6955055606134524
 31
0.0
  0
LINE
  5
53EA6
  8
0
 62
     0
 10
-11.698322744039411
 20
7.629214299877213
 30
0.0
 11
-11.698322744039411
 21
7.629214299877213
 31
0.0
  0
LINE
  5
53EA7
  8
0
 62
     0
 10
-11.76461400477565
 20
7.5629230391409754
 30
0.0
 11
-11.76461400477565
 21
7.5629230391409754
 31
0.0
  0
LINE
  5
53EA8
  8
0
 62
     0
 10
-11.830905265511889
 20
7.496631778404736
 30
0.0
 11
-11.830905265511889
 21
7.496631778404736
 31
0.0
  0
LINE
  5
53EA9
  8
0
 62
     0
 10
-11.897196526248131
 20
7.4303405176684976
 30
0.0
 11
-11.897196526248131
 21
7.4303405176684976
 31
0.0
  0
LINE
  5
53EAA
  8
0
 62
     0
 10
-11.963487786984359
 20
7.3640492569322591
 30
0.0
 11
-11.963487786984359
 21
7.3640492569322591
 31
0.0
  0
LINE
  5
53EAB
  8
0
 62
     0
 10
-12.0297790477206
 20
7.2977579961960206
 30
0.0
 11
-12.0297790477206
 21
7.2977579961960206
 31
0.0
  0
LINE
  5
53EAC
  8
0
 62
     0
 10
-12.09607030845684
 20
7.231466735459783
 30
0.0
 11
-12.09607030845684
 21
7.231466735459783
 31
0.0
  0
LINE
  5
53EAD
  8
0
 62
     0
 10
-12.162361569193081
 20
7.1651754747235437
 30
0.0
 11
-12.162361569193081
 21
7.1651754747235437
 31
0.0
  0
LINE
  5
53EAE
  8
0
 62
     0
 10
-12.22865282992932
 20
7.0988842139873061
 30
0.0
 11
-12.22865282992932
 21
7.0988842139873061
 31
0.0
  0
LINE
  5
53EAF
  8
0
 62
     0
 10
-12.29494409066556
 20
7.0325929532510667
 30
0.0
 11
-12.29494409066556
 21
7.0325929532510667
 31
0.0
  0
LINE
  5
53EB0
  8
0
 62
     0
 10
-12.361235351401801
 20
6.9663016925148291
 30
0.0
 11
-12.361235351401801
 21
6.9663016925148291
 31
0.0
  0
LINE
  5
53EB1
  8
0
 62
     0
 10
-12.42752661213804
 20
6.9000104317785897
 30
0.0
 11
-12.42752661213804
 21
6.9000104317785897
 31
0.0
  0
LINE
  5
53EB2
  8
0
 62
     0
 10
-12.493817872874279
 20
6.8337191710423522
 30
0.0
 11
-12.493817872874279
 21
6.8337191710423522
 31
0.0
  0
LINE
  5
53EB3
  8
0
 62
     0
 10
-12.560109133610521
 20
6.7674279103061128
 30
0.0
 11
-12.560109133610521
 21
6.7674279103061128
 31
0.0
  0
LINE
  5
53EB4
  8
0
 62
     0
 10
-12.62640039434676
 20
6.7011366495698752
 30
0.0
 11
-12.62640039434676
 21
6.7011366495698752
 31
0.0
  0
LINE
  5
53EB5
  8
0
 62
     0
 10
-12.692691655082999
 20
6.6348453888336358
 30
0.0
 11
-12.692691655082999
 21
6.6348453888336358
 31
0.0
  0
LINE
  5
53EB6
  8
0
 62
     0
 10
-12.75898291581924
 20
6.5685541280973982
 30
0.0
 11
-12.75898291581924
 21
6.5685541280973982
 31
0.0
  0
LINE
  5
53EB7
  8
0
 62
     0
 10
-12.82527417655548
 20
6.5022628673611589
 30
0.0
 11
-12.82527417655548
 21
6.5022628673611589
 31
0.0
  0
LINE
  5
53EB8
  8
0
 62
     0
 10
-12.891565437291719
 20
6.4359716066249213
 30
0.0
 11
-12.891565437291719
 21
6.4359716066249213
 31
0.0
  0
LINE
  5
53EB9
  8
0
 62
     0
 10
-11.002264506308901
 20
8.4578550590801971
 30
0.0
 11
-11.002264506308901
 21
8.4578550590801971
 31
0.0
  0
LINE
  5
53EBA
  8
0
 62
     0
 10
-11.06855576704514
 20
8.3915637983439577
 30
0.0
 11
-11.06855576704514
 21
8.3915637983439577
 31
0.0
  0
LINE
  5
53EBB
  8
0
 62
     0
 10
-11.13484702778138
 20
8.3252725376077183
 30
0.0
 11
-11.13484702778138
 21
8.3252725376077183
 31
0.0
  0
LINE
  5
53EBC
  8
0
 62
     0
 10
-11.201138288517621
 20
8.2589812768714772
 30
0.0
 11
-11.201138288517621
 21
8.2589812768714772
 31
0.0
  0
LINE
  5
53EBD
  8
0
 62
     0
 10
-11.26742954925386
 20
8.1926900161352396
 30
0.0
 11
-11.26742954925386
 21
8.1926900161352396
 31
0.0
  0
LINE
  5
53EBE
  8
0
 62
     0
 10
-11.333720809990091
 20
8.1263987553990003
 30
0.0
 11
-11.333720809990091
 21
8.1263987553990003
 31
0.0
  0
LINE
  5
53EBF
  8
0
 62
     0
 10
-11.40001207072633
 20
8.0601074946627609
 30
0.0
 11
-11.40001207072633
 21
8.0601074946627609
 31
0.0
  0
LINE
  5
53EC0
  8
0
 62
     0
 10
-11.466303331462569
 20
7.9938162339265224
 30
0.0
 11
-11.466303331462569
 21
7.9938162339265224
 31
0.0
  0
LINE
  5
53EC1
  8
0
 62
     0
 10
-11.53259459219881
 20
7.927524973190283
 30
0.0
 11
-11.53259459219881
 21
7.927524973190283
 31
0.0
  0
LINE
  5
53EC2
  8
0
 62
     0
 10
-11.59888585293505
 20
7.8612337124540446
 30
0.0
 11
-11.59888585293505
 21
7.8612337124540446
 31
0.0
  0
LINE
  5
53EC3
  8
0
 62
     0
 10
-11.665177113671289
 20
7.7949424517178061
 30
0.0
 11
-11.665177113671289
 21
7.7949424517178061
 31
0.0
  0
LINE
  5
53EC4
  8
0
 62
     0
 10
-11.73146837440753
 20
7.7286511909815676
 30
0.0
 11
-11.73146837440753
 21
7.7286511909815676
 31
0.0
  0
LINE
  5
53EC5
  8
0
 62
     0
 10
-11.79775963514377
 20
7.66235993024533
 30
0.0
 11
-11.79775963514377
 21
7.66235993024533
 31
0.0
  0
LINE
  5
53EC6
  8
0
 62
     0
 10
-11.864050895880011
 20
7.5960686695090907
 30
0.0
 11
-11.864050895880011
 21
7.5960686695090907
 31
0.0
  0
LINE
  5
53EC7
  8
0
 62
     0
 10
-11.93034215661625
 20
7.5297774087728531
 30
0.0
 11
-11.93034215661625
 21
7.5297774087728531
 31
0.0
  0
LINE
  5
53EC8
  8
0
 62
     0
 10
-11.99663341735249
 20
7.4634861480366137
 30
0.0
 11
-11.99663341735249
 21
7.4634861480366137
 31
0.0
  0
LINE
  5
53EC9
  8
0
 62
     0
 10
-12.062924678088731
 20
7.3971948873003761
 30
0.0
 11
-12.062924678088731
 21
7.3971948873003761
 31
0.0
  0
LINE
  5
53ECA
  8
0
 62
     0
 10
-12.12921593882497
 20
7.3309036265641367
 30
0.0
 11
-12.12921593882497
 21
7.3309036265641367
 31
0.0
  0
LINE
  5
53ECB
  8
0
 62
     0
 10
-12.195507199561209
 20
7.2646123658278992
 30
0.0
 11
-12.195507199561209
 21
7.2646123658278992
 31
0.0
  0
LINE
  5
53ECC
  8
0
 62
     0
 10
-12.261798460297451
 20
7.1983211050916598
 30
0.0
 11
-12.261798460297451
 21
7.1983211050916598
 31
0.0
  0
LINE
  5
53ECD
  8
0
 62
     0
 10
-12.32808972103369
 20
7.1320298443554222
 30
0.0
 11
-12.32808972103369
 21
7.1320298443554222
 31
0.0
  0
LINE
  5
53ECE
  8
0
 62
     0
 10
-12.394380981769929
 20
7.0657385836191828
 30
0.0
 11
-12.394380981769929
 21
7.0657385836191828
 31
0.0
  0
LINE
  5
53ECF
  8
0
 62
     0
 10
-12.46067224250617
 20
6.9994473228829452
 30
0.0
 11
-12.46067224250617
 21
6.9994473228829452
 31
0.0
  0
LINE
  5
53ED0
  8
0
 62
     0
 10
-12.526963503242399
 20
6.9331560621467059
 30
0.0
 11
-12.526963503242399
 21
6.9331560621467059
 31
0.0
  0
LINE
  5
53ED1
  8
0
 62
     0
 10
-12.59325476397864
 20
6.8668648014104683
 30
0.0
 11
-12.59325476397864
 21
6.8668648014104683
 31
0.0
  0
LINE
  5
53ED2
  8
0
 62
     0
 10
-12.65954602471488
 20
6.8005735406742289
 30
0.0
 11
-12.65954602471488
 21
6.8005735406742289
 31
0.0
  0
LINE
  5
53ED3
  8
0
 62
     0
 10
-12.725837285451121
 20
6.7342822799379913
 30
0.0
 11
-12.725837285451121
 21
6.7342822799379913
 31
0.0
  0
LINE
  5
53ED4
  8
0
 62
     0
 10
-12.79212854618736
 20
6.667991019201752
 30
0.0
 11
-12.79212854618736
 21
6.667991019201752
 31
0.0
  0
LINE
  5
53ED5
  8
0
 62
     0
 10
-12.8584198069236
 20
6.6016997584655144
 30
0.0
 11
-12.8584198069236
 21
6.6016997584655144
 31
0.0
  0
LINE
  5
53ED6
  8
0
 62
     0
 10
-11.035410136677021
 20
8.5572919501845597
 30
0.0
 11
-11.035410136677021
 21
8.5572919501845597
 31
0.0
  0
LINE
  5
53ED7
  8
0
 62
     0
 10
-11.10170139741326
 20
8.4910006894483203
 30
0.0
 11
-11.10170139741326
 21
8.4910006894483203
 31
0.0
  0
LINE
  5
53ED8
  8
0
 62
     0
 10
-11.167992658149499
 20
8.4247094287120792
 30
0.0
 11
-11.167992658149499
 21
8.4247094287120792
 31
0.0
  0
LINE
  5
53ED9
  8
0
 62
     0
 10
-11.23428391888574
 20
8.3584181679758416
 30
0.0
 11
-11.23428391888574
 21
8.3584181679758416
 31
0.0
  0
LINE
  5
53EDA
  8
0
 62
     0
 10
-11.30057517962198
 20
8.2921269072396022
 30
0.0
 11
-11.30057517962198
 21
8.2921269072396022
 31
0.0
  0
LINE
  5
53EDB
  8
0
 62
     0
 10
-11.366866440358219
 20
8.2258356465033629
 30
0.0
 11
-11.366866440358219
 21
8.2258356465033629
 31
0.0
  0
LINE
  5
53EDC
  8
0
 62
     0
 10
-11.43315770109445
 20
8.1595443857671235
 30
0.0
 11
-11.43315770109445
 21
8.1595443857671235
 31
0.0
  0
LINE
  5
53EDD
  8
0
 62
     0
 10
-11.499448961830691
 20
8.0932531250308841
 30
0.0
 11
-11.499448961830691
 21
8.0932531250308841
 31
0.0
  0
LINE
  5
53EDE
  8
0
 62
     0
 10
-11.56574022256693
 20
8.0269618642946448
 30
0.0
 11
-11.56574022256693
 21
8.0269618642946448
 31
0.0
  0
LINE
  5
53EDF
  8
0
 62
     0
 10
-11.632031483303169
 20
7.9606706035584054
 30
0.0
 11
-11.632031483303169
 21
7.9606706035584054
 31
0.0
  0
LINE
  5
53EE0
  8
0
 62
     0
 10
-11.698322744039411
 20
7.894379342822166
 30
0.0
 11
-11.698322744039411
 21
7.894379342822166
 31
0.0
  0
LINE
  5
53EE1
  8
0
 62
     0
 10
-11.76461400477565
 20
7.8280880820859284
 30
0.0
 11
-11.76461400477565
 21
7.8280880820859284
 31
0.0
  0
LINE
  5
53EE2
  8
0
 62
     0
 10
-11.830905265511889
 20
7.7617968213496891
 30
0.0
 11
-11.830905265511889
 21
7.7617968213496891
 31
0.0
  0
LINE
  5
53EE3
  8
0
 62
     0
 10
-11.897196526248131
 20
7.6955055606134506
 30
0.0
 11
-11.897196526248131
 21
7.6955055606134506
 31
0.0
  0
LINE
  5
53EE4
  8
0
 62
     0
 10
-11.96348778698437
 20
7.629214299877213
 30
0.0
 11
-11.96348778698437
 21
7.629214299877213
 31
0.0
  0
LINE
  5
53EE5
  8
0
 62
     0
 10
-12.029779047720609
 20
7.5629230391409736
 30
0.0
 11
-12.029779047720609
 21
7.5629230391409736
 31
0.0
  0
LINE
  5
53EE6
  8
0
 62
     0
 10
-12.09607030845685
 20
7.496631778404736
 30
0.0
 11
-12.09607030845685
 21
7.496631778404736
 31
0.0
  0
LINE
  5
53EE7
  8
0
 62
     0
 10
-12.16236156919309
 20
7.4303405176684967
 30
0.0
 11
-12.16236156919309
 21
7.4303405176684967
 31
0.0
  0
LINE
  5
53EE8
  8
0
 62
     0
 10
-12.228652829929329
 20
7.3640492569322591
 30
0.0
 11
-12.228652829929329
 21
7.3640492569322591
 31
0.0
  0
LINE
  5
53EE9
  8
0
 62
     0
 10
-12.29494409066557
 20
7.2977579961960197
 30
0.0
 11
-12.29494409066557
 21
7.2977579961960197
 31
0.0
  0
LINE
  5
53EEA
  8
0
 62
     0
 10
-12.36123535140181
 20
7.2314667354597821
 30
0.0
 11
-12.36123535140181
 21
7.2314667354597821
 31
0.0
  0
LINE
  5
53EEB
  8
0
 62
     0
 10
-12.427526612138051
 20
7.1651754747235428
 30
0.0
 11
-12.427526612138051
 21
7.1651754747235428
 31
0.0
  0
LINE
  5
53EEC
  8
0
 62
     0
 10
-12.493817872874279
 20
7.0988842139873052
 30
0.0
 11
-12.493817872874279
 21
7.0988842139873052
 31
0.0
  0
LINE
  5
53EED
  8
0
 62
     0
 10
-12.560109133610521
 20
7.0325929532510658
 30
0.0
 11
-12.560109133610521
 21
7.0325929532510658
 31
0.0
  0
LINE
  5
53EEE
  8
0
 62
     0
 10
-12.62640039434676
 20
6.9663016925148282
 30
0.0
 11
-12.62640039434676
 21
6.9663016925148282
 31
0.0
  0
LINE
  5
53EEF
  8
0
 62
     0
 10
-12.692691655082999
 20
6.9000104317785889
 30
0.0
 11
-12.692691655082999
 21
6.9000104317785889
 31
0.0
  0
LINE
  5
53EF0
  8
0
 62
     0
 10
-12.75898291581924
 20
6.8337191710423513
 30
0.0
 11
-12.75898291581924
 21
6.8337191710423513
 31
0.0
  0
LINE
  5
53EF1
  8
0
 62
     0
 10
-12.82527417655548
 20
6.7674279103061119
 30
0.0
 11
-12.82527417655548
 21
6.7674279103061119
 31
0.0
  0
LINE
  5
53EF2
  8
0
 62
     0
 10
-12.891565437291719
 20
6.7011366495698743
 30
0.0
 11
-12.891565437291719
 21
6.7011366495698743
 31
0.0
  0
LINE
  5
53EF3
  8
0
 62
     0
 10
-11.002264506308901
 20
8.7230201020251545
 30
0.0
 11
-11.002264506308901
 21
8.7230201020251545
 31
0.0
  0
LINE
  5
53EF4
  8
0
 62
     0
 10
-11.06855576704514
 20
8.6567288412889152
 30
0.0
 11
-11.06855576704514
 21
8.6567288412889152
 31
0.0
  0
LINE
  5
53EF5
  8
0
 62
     0
 10
-11.13484702778138
 20
8.5904375805526758
 30
0.0
 11
-11.13484702778138
 21
8.5904375805526758
 31
0.0
  0
LINE
  5
53EF6
  8
0
 62
     0
 10
-11.201138288517621
 20
8.5241463198164364
 30
0.0
 11
-11.201138288517621
 21
8.5241463198164364
 31
0.0
  0
LINE
  5
53EF7
  8
0
 62
     0
 10
-11.26742954925386
 20
8.4578550590801971
 30
0.0
 11
-11.26742954925386
 21
8.4578550590801971
 31
0.0
  0
LINE
  5
53EF8
  8
0
 62
     0
 10
-11.333720809990091
 20
8.3915637983439577
 30
0.0
 11
-11.333720809990091
 21
8.3915637983439577
 31
0.0
  0
LINE
  5
53EF9
  8
0
 62
     0
 10
-11.40001207072633
 20
8.3252725376077183
 30
0.0
 11
-11.40001207072633
 21
8.3252725376077183
 31
0.0
  0
LINE
  5
53EFA
  8
0
 62
     0
 10
-11.466303331462569
 20
8.2589812768714772
 30
0.0
 11
-11.466303331462569
 21
8.2589812768714772
 31
0.0
  0
LINE
  5
53EFB
  8
0
 62
     0
 10
-11.53259459219881
 20
8.1926900161352396
 30
0.0
 11
-11.53259459219881
 21
8.1926900161352396
 31
0.0
  0
LINE
  5
53EFC
  8
0
 62
     0
 10
-11.59888585293505
 20
8.1263987553990003
 30
0.0
 11
-11.59888585293505
 21
8.1263987553990003
 31
0.0
  0
LINE
  5
53EFD
  8
0
 62
     0
 10
-11.665177113671289
 20
8.0601074946627609
 30
0.0
 11
-11.665177113671289
 21
8.0601074946627609
 31
0.0
  0
LINE
  5
53EFE
  8
0
 62
     0
 10
-11.73146837440753
 20
7.9938162339265224
 30
0.0
 11
-11.73146837440753
 21
7.9938162339265224
 31
0.0
  0
LINE
  5
53EFF
  8
0
 62
     0
 10
-11.79775963514377
 20
7.927524973190283
 30
0.0
 11
-11.79775963514377
 21
7.927524973190283
 31
0.0
  0
LINE
  5
53F00
  8
0
 62
     0
 10
-11.864050895880011
 20
7.8612337124540446
 30
0.0
 11
-11.864050895880011
 21
7.8612337124540446
 31
0.0
  0
LINE
  5
53F01
  8
0
 62
     0
 10
-11.93034215661625
 20
7.7949424517178061
 30
0.0
 11
-11.93034215661625
 21
7.7949424517178061
 31
0.0
  0
LINE
  5
53F02
  8
0
 62
     0
 10
-11.99663341735249
 20
7.7286511909815676
 30
0.0
 11
-11.99663341735249
 21
7.7286511909815676
 31
0.0
  0
LINE
  5
53F03
  8
0
 62
     0
 10
-12.062924678088731
 20
7.66235993024533
 30
0.0
 11
-12.062924678088731
 21
7.66235993024533
 31
0.0
  0
LINE
  5
53F04
  8
0
 62
     0
 10
-12.12921593882497
 20
7.5960686695090907
 30
0.0
 11
-12.12921593882497
 21
7.5960686695090907
 31
0.0
  0
LINE
  5
53F05
  8
0
 62
     0
 10
-12.195507199561209
 20
7.5297774087728531
 30
0.0
 11
-12.195507199561209
 21
7.5297774087728531
 31
0.0
  0
LINE
  5
53F06
  8
0
 62
     0
 10
-12.261798460297451
 20
7.4634861480366137
 30
0.0
 11
-12.261798460297451
 21
7.4634861480366137
 31
0.0
  0
LINE
  5
53F07
  8
0
 62
     0
 10
-12.32808972103369
 20
7.3971948873003761
 30
0.0
 11
-12.32808972103369
 21
7.3971948873003761
 31
0.0
  0
LINE
  5
53F08
  8
0
 62
     0
 10
-12.394380981769929
 20
7.3309036265641367
 30
0.0
 11
-12.394380981769929
 21
7.3309036265641367
 31
0.0
  0
LINE
  5
53F09
  8
0
 62
     0
 10
-12.46067224250617
 20
7.2646123658278992
 30
0.0
 11
-12.46067224250617
 21
7.2646123658278992
 31
0.0
  0
LINE
  5
53F0A
  8
0
 62
     0
 10
-12.526963503242399
 20
7.1983211050916598
 30
0.0
 11
-12.526963503242399
 21
7.1983211050916598
 31
0.0
  0
LINE
  5
53F0B
  8
0
 62
     0
 10
-12.59325476397864
 20
7.1320298443554222
 30
0.0
 11
-12.59325476397864
 21
7.1320298443554222
 31
0.0
  0
LINE
  5
53F0C
  8
0
 62
     0
 10
-12.65954602471488
 20
7.0657385836191828
 30
0.0
 11
-12.65954602471488
 21
7.0657385836191828
 31
0.0
  0
LINE
  5
53F0D
  8
0
 62
     0
 10
-12.725837285451121
 20
6.9994473228829452
 30
0.0
 11
-12.725837285451121
 21
6.9994473228829452
 31
0.0
  0
LINE
  5
53F0E
  8
0
 62
     0
 10
-12.79212854618736
 20
6.9331560621467059
 30
0.0
 11
-12.79212854618736
 21
6.9331560621467059
 31
0.0
  0
LINE
  5
53F0F
  8
0
 62
     0
 10
-12.8584198069236
 20
6.8668648014104683
 30
0.0
 11
-12.8584198069236
 21
6.8668648014104683
 31
0.0
  0
LINE
  5
53F10
  8
0
 62
     0
 10
-11.03541013667701
 20
8.8224569931295171
 30
0.0
 11
-11.03541013667701
 21
8.8224569931295171
 31
0.0
  0
LINE
  5
53F11
  8
0
 62
     0
 10
-11.101701397413249
 20
8.7561657323932778
 30
0.0
 11
-11.101701397413249
 21
8.7561657323932778
 31
0.0
  0
LINE
  5
53F12
  8
0
 62
     0
 10
-11.16799265814949
 20
8.6898744716570384
 30
0.0
 11
-11.16799265814949
 21
8.6898744716570384
 31
0.0
  0
LINE
  5
53F13
  8
0
 62
     0
 10
-11.23428391888573
 20
8.623583210920799
 30
0.0
 11
-11.23428391888573
 21
8.623583210920799
 31
0.0
  0
LINE
  5
53F14
  8
0
 62
     0
 10
-11.300575179621969
 20
8.5572919501845597
 30
0.0
 11
-11.300575179621969
 21
8.5572919501845597
 31
0.0
  0
LINE
  5
53F15
  8
0
 62
     0
 10
-11.36686644035821
 20
8.4910006894483203
 30
0.0
 11
-11.36686644035821
 21
8.4910006894483203
 31
0.0
  0
LINE
  5
53F16
  8
0
 62
     0
 10
-11.43315770109445
 20
8.4247094287120792
 30
0.0
 11
-11.43315770109445
 21
8.4247094287120792
 31
0.0
  0
LINE
  5
53F17
  8
0
 62
     0
 10
-11.499448961830691
 20
8.3584181679758416
 30
0.0
 11
-11.499448961830691
 21
8.3584181679758416
 31
0.0
  0
LINE
  5
53F18
  8
0
 62
     0
 10
-11.56574022256693
 20
8.2921269072396022
 30
0.0
 11
-11.56574022256693
 21
8.2921269072396022
 31
0.0
  0
LINE
  5
53F19
  8
0
 62
     0
 10
-11.632031483303169
 20
8.2258356465033629
 30
0.0
 11
-11.632031483303169
 21
8.2258356465033629
 31
0.0
  0
LINE
  5
53F1A
  8
0
 62
     0
 10
-11.698322744039411
 20
8.1595443857671235
 30
0.0
 11
-11.698322744039411
 21
8.1595443857671235
 31
0.0
  0
LINE
  5
53F1B
  8
0
 62
     0
 10
-11.76461400477565
 20
8.0932531250308841
 30
0.0
 11
-11.76461400477565
 21
8.0932531250308841
 31
0.0
  0
LINE
  5
53F1C
  8
0
 62
     0
 10
-11.830905265511889
 20
8.0269618642946448
 30
0.0
 11
-11.830905265511889
 21
8.0269618642946448
 31
0.0
  0
LINE
  5
53F1D
  8
0
 62
     0
 10
-11.897196526248131
 20
7.9606706035584063
 30
0.0
 11
-11.897196526248131
 21
7.9606706035584063
 31
0.0
  0
LINE
  5
53F1E
  8
0
 62
     0
 10
-11.963487786984359
 20
7.8943793428221669
 30
0.0
 11
-11.963487786984359
 21
7.8943793428221669
 31
0.0
  0
LINE
  5
53F1F
  8
0
 62
     0
 10
-12.0297790477206
 20
7.8280880820859293
 30
0.0
 11
-12.0297790477206
 21
7.8280880820859293
 31
0.0
  0
LINE
  5
53F20
  8
0
 62
     0
 10
-12.09607030845684
 20
7.76179682134969
 30
0.0
 11
-12.09607030845684
 21
7.76179682134969
 31
0.0
  0
LINE
  5
53F21
  8
0
 62
     0
 10
-12.162361569193081
 20
7.6955055606134524
 30
0.0
 11
-12.162361569193081
 21
7.6955055606134524
 31
0.0
  0
LINE
  5
53F22
  8
0
 62
     0
 10
-12.22865282992932
 20
7.629214299877213
 30
0.0
 11
-12.22865282992932
 21
7.629214299877213
 31
0.0
  0
LINE
  5
53F23
  8
0
 62
     0
 10
-12.29494409066556
 20
7.5629230391409754
 30
0.0
 11
-12.29494409066556
 21
7.5629230391409754
 31
0.0
  0
LINE
  5
53F24
  8
0
 62
     0
 10
-12.361235351401801
 20
7.496631778404736
 30
0.0
 11
-12.361235351401801
 21
7.496631778404736
 31
0.0
  0
LINE
  5
53F25
  8
0
 62
     0
 10
-12.42752661213804
 20
7.4303405176684976
 30
0.0
 11
-12.42752661213804
 21
7.4303405176684976
 31
0.0
  0
LINE
  5
53F26
  8
0
 62
     0
 10
-12.493817872874279
 20
7.3640492569322591
 30
0.0
 11
-12.493817872874279
 21
7.3640492569322591
 31
0.0
  0
LINE
  5
53F27
  8
0
 62
     0
 10
-12.560109133610521
 20
7.2977579961960206
 30
0.0
 11
-12.560109133610521
 21
7.2977579961960206
 31
0.0
  0
LINE
  5
53F28
  8
0
 62
     0
 10
-12.62640039434676
 20
7.231466735459783
 30
0.0
 11
-12.62640039434676
 21
7.231466735459783
 31
0.0
  0
LINE
  5
53F29
  8
0
 62
     0
 10
-12.692691655082999
 20
7.1651754747235437
 30
0.0
 11
-12.692691655082999
 21
7.1651754747235437
 31
0.0
  0
LINE
  5
53F2A
  8
0
 62
     0
 10
-12.75898291581924
 20
7.0988842139873061
 30
0.0
 11
-12.75898291581924
 21
7.0988842139873061
 31
0.0
  0
LINE
  5
53F2B
  8
0
 62
     0
 10
-12.82527417655548
 20
7.0325929532510667
 30
0.0
 11
-12.82527417655548
 21
7.0325929532510667
 31
0.0
  0
LINE
  5
53F2C
  8
0
 62
     0
 10
-12.891565437291719
 20
6.9663016925148291
 30
0.0
 11
-12.891565437291719
 21
6.9663016925148291
 31
0.0
  0
LINE
  5
53F2D
  8
0
 62
     0
 10
-11.002264506308901
 20
8.9881851449701173
 30
0.0
 11
-11.002264506308901
 21
8.9881851449701173
 31
0.0
  0
LINE
  5
53F2E
  8
0
 62
     0
 10
-11.06855576704514
 20
8.9218938842338762
 30
0.0
 11
-11.06855576704514
 21
8.9218938842338762
 31
0.0
  0
LINE
  5
53F2F
  8
0
 62
     0
 10
-11.13484702778138
 20
8.8556026234976386
 30
0.0
 11
-11.13484702778138
 21
8.8556026234976386
 31
0.0
  0
LINE
  5
53F30
  8
0
 62
     0
 10
-11.201138288517621
 20
8.7893113627613992
 30
0.0
 11
-11.201138288517621
 21
8.7893113627613992
 31
0.0
  0
LINE
  5
53F31
  8
0
 62
     0
 10
-11.26742954925386
 20
8.7230201020251599
 30
0.0
 11
-11.26742954925386
 21
8.7230201020251599
 31
0.0
  0
LINE
  5
53F32
  8
0
 62
     0
 10
-11.333720809990091
 20
8.6567288412889205
 30
0.0
 11
-11.333720809990091
 21
8.6567288412889205
 31
0.0
  0
LINE
  5
53F33
  8
0
 62
     0
 10
-11.40001207072633
 20
8.5904375805526811
 30
0.0
 11
-11.40001207072633
 21
8.5904375805526811
 31
0.0
  0
LINE
  5
53F34
  8
0
 62
     0
 10
-11.466303331462569
 20
8.5241463198164418
 30
0.0
 11
-11.466303331462569
 21
8.5241463198164418
 31
0.0
  0
LINE
  5
53F35
  8
0
 62
     0
 10
-11.53259459219881
 20
8.4578550590802024
 30
0.0
 11
-11.53259459219881
 21
8.4578550590802024
 31
0.0
  0
LINE
  5
53F36
  8
0
 62
     0
 10
-11.59888585293505
 20
8.391563798343963
 30
0.0
 11
-11.59888585293505
 21
8.391563798343963
 31
0.0
  0
LINE
  5
53F37
  8
0
 62
     0
 10
-11.665177113671289
 20
8.3252725376077237
 30
0.0
 11
-11.665177113671289
 21
8.3252725376077237
 31
0.0
  0
LINE
  5
53F38
  8
0
 62
     0
 10
-11.73146837440753
 20
8.2589812768714843
 30
0.0
 11
-11.73146837440753
 21
8.2589812768714843
 31
0.0
  0
LINE
  5
53F39
  8
0
 62
     0
 10
-11.79775963514377
 20
8.1926900161352432
 30
0.0
 11
-11.79775963514377
 21
8.1926900161352432
 31
0.0
  0
LINE
  5
53F3A
  8
0
 62
     0
 10
-11.864050895880011
 20
8.1263987553990056
 30
0.0
 11
-11.864050895880011
 21
8.1263987553990056
 31
0.0
  0
LINE
  5
53F3B
  8
0
 62
     0
 10
-11.93034215661625
 20
8.0601074946627662
 30
0.0
 11
-11.93034215661625
 21
8.0601074946627662
 31
0.0
  0
LINE
  5
53F3C
  8
0
 62
     0
 10
-11.99663341735249
 20
7.9938162339265268
 30
0.0
 11
-11.99663341735249
 21
7.9938162339265268
 31
0.0
  0
LINE
  5
53F3D
  8
0
 62
     0
 10
-12.062924678088731
 20
7.9275249731902893
 30
0.0
 11
-12.062924678088731
 21
7.9275249731902893
 31
0.0
  0
LINE
  5
53F3E
  8
0
 62
     0
 10
-12.12921593882497
 20
7.8612337124540499
 30
0.0
 11
-12.12921593882497
 21
7.8612337124540499
 31
0.0
  0
LINE
  5
53F3F
  8
0
 62
     0
 10
-12.195507199561209
 20
7.7949424517178123
 30
0.0
 11
-12.195507199561209
 21
7.7949424517178123
 31
0.0
  0
LINE
  5
53F40
  8
0
 62
     0
 10
-12.261798460297451
 20
7.7286511909815729
 30
0.0
 11
-12.261798460297451
 21
7.7286511909815729
 31
0.0
  0
LINE
  5
53F41
  8
0
 62
     0
 10
-12.32808972103369
 20
7.6623599302453353
 30
0.0
 11
-12.32808972103369
 21
7.6623599302453353
 31
0.0
  0
LINE
  5
53F42
  8
0
 62
     0
 10
-12.39438098176992
 20
7.596068669509096
 30
0.0
 11
-12.39438098176992
 21
7.596068669509096
 31
0.0
  0
LINE
  5
53F43
  8
0
 62
     0
 10
-12.46067224250616
 20
7.5297774087728584
 30
0.0
 11
-12.46067224250616
 21
7.5297774087728584
 31
0.0
  0
LINE
  5
53F44
  8
0
 62
     0
 10
-12.526963503242399
 20
7.463486148036619
 30
0.0
 11
-12.526963503242399
 21
7.463486148036619
 31
0.0
  0
LINE
  5
53F45
  8
0
 62
     0
 10
-12.59325476397864
 20
7.3971948873003814
 30
0.0
 11
-12.59325476397864
 21
7.3971948873003814
 31
0.0
  0
LINE
  5
53F46
  8
0
 62
     0
 10
-12.65954602471488
 20
7.3309036265641421
 30
0.0
 11
-12.65954602471488
 21
7.3309036265641421
 31
0.0
  0
LINE
  5
53F47
  8
0
 62
     0
 10
-12.725837285451121
 20
7.2646123658279036
 30
0.0
 11
-12.725837285451121
 21
7.2646123658279036
 31
0.0
  0
LINE
  5
53F48
  8
0
 62
     0
 10
-12.79212854618736
 20
7.198321105091666
 30
0.0
 11
-12.79212854618736
 21
7.198321105091666
 31
0.0
  0
LINE
  5
53F49
  8
0
 62
     0
 10
-12.8584198069236
 20
7.1320298443554266
 30
0.0
 11
-12.8584198069236
 21
7.1320298443554266
 31
0.0
  0
LINE
  5
53F4A
  8
0
 62
     0
 10
-11.035410136677021
 20
9.0876220360744746
 30
0.0
 11
-11.035410136677021
 21
9.0876220360744746
 31
0.0
  0
LINE
  5
53F4B
  8
0
 62
     0
 10
-11.10170139741326
 20
9.0213307753382352
 30
0.0
 11
-11.10170139741326
 21
9.0213307753382352
 31
0.0
  0
LINE
  5
53F4C
  8
0
 62
     0
 10
-11.167992658149499
 20
8.9550395146019959
 30
0.0
 11
-11.167992658149499
 21
8.9550395146019959
 31
0.0
  0
LINE
  5
53F4D
  8
0
 62
     0
 10
-11.23428391888574
 20
8.8887482538657565
 30
0.0
 11
-11.23428391888574
 21
8.8887482538657565
 31
0.0
  0
LINE
  5
53F4E
  8
0
 62
     0
 10
-11.30057517962198
 20
8.8224569931295171
 30
0.0
 11
-11.30057517962198
 21
8.8224569931295171
 31
0.0
  0
LINE
  5
53F4F
  8
0
 62
     0
 10
-11.366866440358219
 20
8.7561657323932778
 30
0.0
 11
-11.366866440358219
 21
8.7561657323932778
 31
0.0
  0
LINE
  5
53F50
  8
0
 62
     0
 10
-11.43315770109445
 20
8.6898744716570384
 30
0.0
 11
-11.43315770109445
 21
8.6898744716570384
 31
0.0
  0
LINE
  5
53F51
  8
0
 62
     0
 10
-11.499448961830691
 20
8.623583210920799
 30
0.0
 11
-11.499448961830691
 21
8.623583210920799
 31
0.0
  0
LINE
  5
53F52
  8
0
 62
     0
 10
-11.56574022256693
 20
8.5572919501845597
 30
0.0
 11
-11.56574022256693
 21
8.5572919501845597
 31
0.0
  0
LINE
  5
53F53
  8
0
 62
     0
 10
-11.632031483303169
 20
8.4910006894483203
 30
0.0
 11
-11.632031483303169
 21
8.4910006894483203
 31
0.0
  0
LINE
  5
53F54
  8
0
 62
     0
 10
-11.698322744039411
 20
8.4247094287120792
 30
0.0
 11
-11.698322744039411
 21
8.4247094287120792
 31
0.0
  0
LINE
  5
53F55
  8
0
 62
     0
 10
-11.76461400477565
 20
8.3584181679758416
 30
0.0
 11
-11.76461400477565
 21
8.3584181679758416
 31
0.0
  0
LINE
  5
53F56
  8
0
 62
     0
 10
-11.830905265511889
 20
8.2921269072396022
 30
0.0
 11
-11.830905265511889
 21
8.2921269072396022
 31
0.0
  0
LINE
  5
53F57
  8
0
 62
     0
 10
-11.897196526248131
 20
8.2258356465033629
 30
0.0
 11
-11.897196526248131
 21
8.2258356465033629
 31
0.0
  0
LINE
  5
53F58
  8
0
 62
     0
 10
-11.96348778698437
 20
8.1595443857671235
 30
0.0
 11
-11.96348778698437
 21
8.1595443857671235
 31
0.0
  0
LINE
  5
53F59
  8
0
 62
     0
 10
-12.029779047720609
 20
8.0932531250308841
 30
0.0
 11
-12.029779047720609
 21
8.0932531250308841
 31
0.0
  0
LINE
  5
53F5A
  8
0
 62
     0
 10
-12.09607030845685
 20
8.0269618642946448
 30
0.0
 11
-12.09607030845685
 21
8.0269618642946448
 31
0.0
  0
LINE
  5
53F5B
  8
0
 62
     0
 10
-12.16236156919309
 20
7.9606706035584054
 30
0.0
 11
-12.16236156919309
 21
7.9606706035584054
 31
0.0
  0
LINE
  5
53F5C
  8
0
 62
     0
 10
-12.228652829929329
 20
7.894379342822166
 30
0.0
 11
-12.228652829929329
 21
7.894379342822166
 31
0.0
  0
LINE
  5
53F5D
  8
0
 62
     0
 10
-12.29494409066557
 20
7.8280880820859284
 30
0.0
 11
-12.29494409066557
 21
7.8280880820859284
 31
0.0
  0
LINE
  5
53F5E
  8
0
 62
     0
 10
-12.36123535140181
 20
7.7617968213496891
 30
0.0
 11
-12.36123535140181
 21
7.7617968213496891
 31
0.0
  0
LINE
  5
53F5F
  8
0
 62
     0
 10
-12.427526612138051
 20
7.6955055606134506
 30
0.0
 11
-12.427526612138051
 21
7.6955055606134506
 31
0.0
  0
LINE
  5
53F60
  8
0
 62
     0
 10
-12.493817872874279
 20
7.629214299877213
 30
0.0
 11
-12.493817872874279
 21
7.629214299877213
 31
0.0
  0
LINE
  5
53F61
  8
0
 62
     0
 10
-12.560109133610521
 20
7.5629230391409736
 30
0.0
 11
-12.560109133610521
 21
7.5629230391409736
 31
0.0
  0
LINE
  5
53F62
  8
0
 62
     0
 10
-12.62640039434676
 20
7.496631778404736
 30
0.0
 11
-12.62640039434676
 21
7.496631778404736
 31
0.0
  0
LINE
  5
53F63
  8
0
 62
     0
 10
-12.692691655082999
 20
7.4303405176684967
 30
0.0
 11
-12.692691655082999
 21
7.4303405176684967
 31
0.0
  0
LINE
  5
53F64
  8
0
 62
     0
 10
-12.75898291581924
 20
7.3640492569322591
 30
0.0
 11
-12.75898291581924
 21
7.3640492569322591
 31
0.0
  0
LINE
  5
53F65
  8
0
 62
     0
 10
-12.82527417655548
 20
7.2977579961960197
 30
0.0
 11
-12.82527417655548
 21
7.2977579961960197
 31
0.0
  0
LINE
  5
53F66
  8
0
 62
     0
 10
-12.891565437291719
 20
7.2314667354597821
 30
0.0
 11
-12.891565437291719
 21
7.2314667354597821
 31
0.0
  0
LINE
  5
53F67
  8
0
 62
     0
 10
-11.002264506308901
 20
9.253350187915073
 30
0.0
 11
-11.002264506308901
 21
9.253350187915073
 31
0.0
  0
LINE
  5
53F68
  8
0
 62
     0
 10
-11.06855576704514
 20
9.1870589271788337
 30
0.0
 11
-11.06855576704514
 21
9.1870589271788337
 31
0.0
  0
LINE
  5
53F69
  8
0
 62
     0
 10
-11.13484702778138
 20
9.1207676664425943
 30
0.0
 11
-11.13484702778138
 21
9.1207676664425943
 31
0.0
  0
LINE
  5
53F6A
  8
0
 62
     0
 10
-11.201138288517621
 20
9.0544764057063531
 30
0.0
 11
-11.201138288517621
 21
9.0544764057063531
 31
0.0
  0
LINE
  5
53F6B
  8
0
 62
     0
 10
-11.26742954925386
 20
8.9881851449701156
 30
0.0
 11
-11.26742954925386
 21
8.9881851449701156
 31
0.0
  0
LINE
  5
53F6C
  8
0
 62
     0
 10
-11.333720809990091
 20
8.9218938842338762
 30
0.0
 11
-11.333720809990091
 21
8.9218938842338762
 31
0.0
  0
LINE
  5
53F6D
  8
0
 62
     0
 10
-11.40001207072633
 20
8.8556026234976368
 30
0.0
 11
-11.40001207072633
 21
8.8556026234976368
 31
0.0
  0
LINE
  5
53F6E
  8
0
 62
     0
 10
-11.466303331462569
 20
8.7893113627613975
 30
0.0
 11
-11.466303331462569
 21
8.7893113627613975
 31
0.0
  0
LINE
  5
53F6F
  8
0
 62
     0
 10
-11.53259459219881
 20
8.7230201020251581
 30
0.0
 11
-11.53259459219881
 21
8.7230201020251581
 31
0.0
  0
LINE
  5
53F70
  8
0
 62
     0
 10
-11.59888585293505
 20
8.6567288412889187
 30
0.0
 11
-11.59888585293505
 21
8.6567288412889187
 31
0.0
  0
LINE
  5
53F71
  8
0
 62
     0
 10
-11.665177113671289
 20
8.5904375805526794
 30
0.0
 11
-11.665177113671289
 21
8.5904375805526794
 31
0.0
  0
LINE
  5
53F72
  8
0
 62
     0
 10
-11.73146837440753
 20
8.5241463198164382
 30
0.0
 11
-11.73146837440753
 21
8.5241463198164382
 31
0.0
  0
LINE
  5
53F73
  8
0
 62
     0
 10
-11.79775963514377
 20
8.4578550590802006
 30
0.0
 11
-11.79775963514377
 21
8.4578550590802006
 31
0.0
  0
LINE
  5
53F74
  8
0
 62
     0
 10
-11.864050895880011
 20
8.3915637983439613
 30
0.0
 11
-11.864050895880011
 21
8.3915637983439613
 31
0.0
  0
LINE
  5
53F75
  8
0
 62
     0
 10
-11.93034215661625
 20
8.3252725376077201
 30
0.0
 11
-11.93034215661625
 21
8.3252725376077201
 31
0.0
  0
LINE
  5
53F76
  8
0
 62
     0
 10
-11.99663341735249
 20
8.2589812768714825
 30
0.0
 11
-11.99663341735249
 21
8.2589812768714825
 31
0.0
  0
LINE
  5
53F77
  8
0
 62
     0
 10
-12.062924678088731
 20
8.1926900161352432
 30
0.0
 11
-12.062924678088731
 21
8.1926900161352432
 31
0.0
  0
LINE
  5
53F78
  8
0
 62
     0
 10
-12.12921593882497
 20
8.1263987553990038
 30
0.0
 11
-12.12921593882497
 21
8.1263987553990038
 31
0.0
  0
LINE
  5
53F79
  8
0
 62
     0
 10
-12.195507199561209
 20
8.0601074946627644
 30
0.0
 11
-12.195507199561209
 21
8.0601074946627644
 31
0.0
  0
LINE
  5
53F7A
  8
0
 62
     0
 10
-12.261798460297451
 20
7.9938162339265251
 30
0.0
 11
-12.261798460297451
 21
7.9938162339265251
 31
0.0
  0
LINE
  5
53F7B
  8
0
 62
     0
 10
-12.32808972103369
 20
7.9275249731902866
 30
0.0
 11
-12.32808972103369
 21
7.9275249731902866
 31
0.0
  0
LINE
  5
53F7C
  8
0
 62
     0
 10
-12.394380981769929
 20
7.861233712454049
 30
0.0
 11
-12.394380981769929
 21
7.861233712454049
 31
0.0
  0
LINE
  5
53F7D
  8
0
 62
     0
 10
-12.46067224250617
 20
7.7949424517178096
 30
0.0
 11
-12.46067224250617
 21
7.7949424517178096
 31
0.0
  0
LINE
  5
53F7E
  8
0
 62
     0
 10
-12.526963503242399
 20
7.7286511909815721
 30
0.0
 11
-12.526963503242399
 21
7.7286511909815721
 31
0.0
  0
LINE
  5
53F7F
  8
0
 62
     0
 10
-12.59325476397864
 20
7.6623599302453327
 30
0.0
 11
-12.59325476397864
 21
7.6623599302453327
 31
0.0
  0
LINE
  5
53F80
  8
0
 62
     0
 10
-12.65954602471488
 20
7.5960686695090951
 30
0.0
 11
-12.65954602471488
 21
7.5960686695090951
 31
0.0
  0
LINE
  5
53F81
  8
0
 62
     0
 10
-12.725837285451121
 20
7.5297774087728557
 30
0.0
 11
-12.725837285451121
 21
7.5297774087728557
 31
0.0
  0
LINE
  5
53F82
  8
0
 62
     0
 10
-12.79212854618736
 20
7.4634861480366181
 30
0.0
 11
-12.79212854618736
 21
7.4634861480366181
 31
0.0
  0
LINE
  5
53F83
  8
0
 62
     0
 10
-12.8584198069236
 20
7.3971948873003788
 30
0.0
 11
-12.8584198069236
 21
7.3971948873003788
 31
0.0
  0
LINE
  5
53F84
  8
0
 62
     0
 10
-11.035410136677021
 20
9.3527870790194356
 30
0.0
 11
-11.035410136677021
 21
9.3527870790194356
 31
0.0
  0
LINE
  5
53F85
  8
0
 62
     0
 10
-11.10170139741326
 20
9.2864958182831963
 30
0.0
 11
-11.10170139741326
 21
9.2864958182831963
 31
0.0
  0
LINE
  5
53F86
  8
0
 62
     0
 10
-11.167992658149499
 20
9.2202045575469551
 30
0.0
 11
-11.167992658149499
 21
9.2202045575469551
 31
0.0
  0
LINE
  5
53F87
  8
0
 62
     0
 10
-11.23428391888574
 20
9.1539132968107175
 30
0.0
 11
-11.23428391888574
 21
9.1539132968107175
 31
0.0
  0
LINE
  5
53F88
  8
0
 62
     0
 10
-11.30057517962198
 20
9.0876220360744782
 30
0.0
 11
-11.30057517962198
 21
9.0876220360744782
 31
0.0
  0
LINE
  5
53F89
  8
0
 62
     0
 10
-11.366866440358219
 20
9.0213307753382388
 30
0.0
 11
-11.366866440358219
 21
9.0213307753382388
 31
0.0
  0
LINE
  5
53F8A
  8
0
 62
     0
 10
-11.43315770109445
 20
8.9550395146019994
 30
0.0
 11
-11.43315770109445
 21
8.9550395146019994
 31
0.0
  0
LINE
  5
53F8B
  8
0
 62
     0
 10
-11.499448961830691
 20
8.8887482538657601
 30
0.0
 11
-11.499448961830691
 21
8.8887482538657601
 31
0.0
  0
LINE
  5
53F8C
  8
0
 62
     0
 10
-11.56574022256693
 20
8.8224569931295207
 30
0.0
 11
-11.56574022256693
 21
8.8224569931295207
 31
0.0
  0
LINE
  5
53F8D
  8
0
 62
     0
 10
-11.632031483303169
 20
8.7561657323932813
 30
0.0
 11
-11.632031483303169
 21
8.7561657323932813
 31
0.0
  0
LINE
  5
53F8E
  8
0
 62
     0
 10
-11.698322744039411
 20
8.6898744716570402
 30
0.0
 11
-11.698322744039411
 21
8.6898744716570402
 31
0.0
  0
LINE
  5
53F8F
  8
0
 62
     0
 10
-11.76461400477565
 20
8.6235832109208026
 30
0.0
 11
-11.76461400477565
 21
8.6235832109208026
 31
0.0
  0
LINE
  5
53F90
  8
0
 62
     0
 10
-11.830905265511889
 20
8.5572919501845632
 30
0.0
 11
-11.830905265511889
 21
8.5572919501845632
 31
0.0
  0
LINE
  5
53F91
  8
0
 62
     0
 10
-11.897196526248131
 20
8.4910006894483239
 30
0.0
 11
-11.897196526248131
 21
8.4910006894483239
 31
0.0
  0
LINE
  5
53F92
  8
0
 62
     0
 10
-11.96348778698437
 20
8.4247094287120845
 30
0.0
 11
-11.96348778698437
 21
8.4247094287120845
 31
0.0
  0
LINE
  5
53F93
  8
0
 62
     0
 10
-12.029779047720609
 20
8.3584181679758451
 30
0.0
 11
-12.029779047720609
 21
8.3584181679758451
 31
0.0
  0
LINE
  5
53F94
  8
0
 62
     0
 10
-12.09607030845685
 20
8.2921269072396058
 30
0.0
 11
-12.09607030845685
 21
8.2921269072396058
 31
0.0
  0
LINE
  5
53F95
  8
0
 62
     0
 10
-12.16236156919309
 20
8.2258356465033664
 30
0.0
 11
-12.16236156919309
 21
8.2258356465033664
 31
0.0
  0
LINE
  5
53F96
  8
0
 62
     0
 10
-12.228652829929329
 20
8.159544385767127
 30
0.0
 11
-12.228652829929329
 21
8.159544385767127
 31
0.0
  0
LINE
  5
53F97
  8
0
 62
     0
 10
-12.29494409066557
 20
8.0932531250308877
 30
0.0
 11
-12.29494409066557
 21
8.0932531250308877
 31
0.0
  0
LINE
  5
53F98
  8
0
 62
     0
 10
-12.36123535140181
 20
8.0269618642946483
 30
0.0
 11
-12.36123535140181
 21
8.0269618642946483
 31
0.0
  0
LINE
  5
53F99
  8
0
 62
     0
 10
-12.427526612138051
 20
7.9606706035584081
 30
0.0
 11
-12.427526612138051
 21
7.9606706035584081
 31
0.0
  0
LINE
  5
53F9A
  8
0
 62
     0
 10
-12.493817872874279
 20
7.8943793428221696
 30
0.0
 11
-12.493817872874279
 21
7.8943793428221696
 31
0.0
  0
LINE
  5
53F9B
  8
0
 62
     0
 10
-12.560109133610521
 20
7.8280880820859311
 30
0.0
 11
-12.560109133610521
 21
7.8280880820859311
 31
0.0
  0
LINE
  5
53F9C
  8
0
 62
     0
 10
-12.62640039434676
 20
7.7617968213496926
 30
0.0
 11
-12.62640039434676
 21
7.7617968213496926
 31
0.0
  0
LINE
  5
53F9D
  8
0
 62
     0
 10
-12.692691655082999
 20
7.695505560613455
 30
0.0
 11
-12.692691655082999
 21
7.695505560613455
 31
0.0
  0
LINE
  5
53F9E
  8
0
 62
     0
 10
-12.75898291581924
 20
7.6292142998772157
 30
0.0
 11
-12.75898291581924
 21
7.6292142998772157
 31
0.0
  0
LINE
  5
53F9F
  8
0
 62
     0
 10
-12.82527417655548
 20
7.5629230391409781
 30
0.0
 11
-12.82527417655548
 21
7.5629230391409781
 31
0.0
  0
LINE
  5
53FA0
  8
0
 62
     0
 10
-12.891565437291719
 20
7.4966317784047387
 30
0.0
 11
-12.891565437291719
 21
7.4966317784047387
 31
0.0
  0
LINE
  5
53FA1
  8
0
 62
     0
 10
-11.002264506308901
 20
9.5185152308600305
 30
0.0
 11
-11.002264506308901
 21
9.5185152308600305
 31
0.0
  0
LINE
  5
53FA2
  8
0
 62
     0
 10
-11.06855576704514
 20
9.4522239701237911
 30
0.0
 11
-11.06855576704514
 21
9.4522239701237911
 31
0.0
  0
LINE
  5
53FA3
  8
0
 62
     0
 10
-11.13484702778138
 20
9.3859327093875518
 30
0.0
 11
-11.13484702778138
 21
9.3859327093875518
 31
0.0
  0
LINE
  5
53FA4
  8
0
 62
     0
 10
-11.201138288517621
 20
9.3196414486513124
 30
0.0
 11
-11.201138288517621
 21
9.3196414486513124
 31
0.0
  0
LINE
  5
53FA5
  8
0
 62
     0
 10
-11.26742954925386
 20
9.253350187915073
 30
0.0
 11
-11.26742954925386
 21
9.253350187915073
 31
0.0
  0
LINE
  5
53FA6
  8
0
 62
     0
 10
-11.333720809990091
 20
9.1870589271788337
 30
0.0
 11
-11.333720809990091
 21
9.1870589271788337
 31
0.0
  0
LINE
  5
53FA7
  8
0
 62
     0
 10
-11.40001207072633
 20
9.1207676664425943
 30
0.0
 11
-11.40001207072633
 21
9.1207676664425943
 31
0.0
  0
LINE
  5
53FA8
  8
0
 62
     0
 10
-11.466303331462569
 20
9.0544764057063531
 30
0.0
 11
-11.466303331462569
 21
9.0544764057063531
 31
0.0
  0
LINE
  5
53FA9
  8
0
 62
     0
 10
-11.53259459219881
 20
8.9881851449701156
 30
0.0
 11
-11.53259459219881
 21
8.9881851449701156
 31
0.0
  0
LINE
  5
53FAA
  8
0
 62
     0
 10
-11.59888585293505
 20
8.9218938842338762
 30
0.0
 11
-11.59888585293505
 21
8.9218938842338762
 31
0.0
  0
LINE
  5
53FAB
  8
0
 62
     0
 10
-11.665177113671289
 20
8.8556026234976368
 30
0.0
 11
-11.665177113671289
 21
8.8556026234976368
 31
0.0
  0
LINE
  5
53FAC
  8
0
 62
     0
 10
-11.73146837440753
 20
8.7893113627613975
 30
0.0
 11
-11.73146837440753
 21
8.7893113627613975
 31
0.0
  0
LINE
  5
53FAD
  8
0
 62
     0
 10
-11.79775963514377
 20
8.7230201020251581
 30
0.0
 11
-11.79775963514377
 21
8.7230201020251581
 31
0.0
  0
LINE
  5
53FAE
  8
0
 62
     0
 10
-11.864050895880011
 20
8.6567288412889187
 30
0.0
 11
-11.864050895880011
 21
8.6567288412889187
 31
0.0
  0
LINE
  5
53FAF
  8
0
 62
     0
 10
-11.93034215661625
 20
8.5904375805526794
 30
0.0
 11
-11.93034215661625
 21
8.5904375805526794
 31
0.0
  0
LINE
  5
53FB0
  8
0
 62
     0
 10
-11.99663341735249
 20
8.5241463198164382
 30
0.0
 11
-11.99663341735249
 21
8.5241463198164382
 31
0.0
  0
LINE
  5
53FB1
  8
0
 62
     0
 10
-12.062924678088731
 20
8.4578550590802006
 30
0.0
 11
-12.062924678088731
 21
8.4578550590802006
 31
0.0
  0
LINE
  5
53FB2
  8
0
 62
     0
 10
-12.12921593882497
 20
8.3915637983439613
 30
0.0
 11
-12.12921593882497
 21
8.3915637983439613
 31
0.0
  0
LINE
  5
53FB3
  8
0
 62
     0
 10
-12.195507199561209
 20
8.3252725376077201
 30
0.0
 11
-12.195507199561209
 21
8.3252725376077201
 31
0.0
  0
LINE
  5
53FB4
  8
0
 62
     0
 10
-12.261798460297451
 20
8.2589812768714825
 30
0.0
 11
-12.261798460297451
 21
8.2589812768714825
 31
0.0
  0
LINE
  5
53FB5
  8
0
 62
     0
 10
-12.32808972103369
 20
8.1926900161352432
 30
0.0
 11
-12.32808972103369
 21
8.1926900161352432
 31
0.0
  0
LINE
  5
53FB6
  8
0
 62
     0
 10
-12.394380981769929
 20
8.1263987553990038
 30
0.0
 11
-12.394380981769929
 21
8.1263987553990038
 31
0.0
  0
LINE
  5
53FB7
  8
0
 62
     0
 10
-12.46067224250617
 20
8.0601074946627644
 30
0.0
 11
-12.46067224250617
 21
8.0601074946627644
 31
0.0
  0
LINE
  5
53FB8
  8
0
 62
     0
 10
-12.526963503242399
 20
7.9938162339265251
 30
0.0
 11
-12.526963503242399
 21
7.9938162339265251
 31
0.0
  0
LINE
  5
53FB9
  8
0
 62
     0
 10
-12.59325476397864
 20
7.9275249731902866
 30
0.0
 11
-12.59325476397864
 21
7.9275249731902866
 31
0.0
  0
LINE
  5
53FBA
  8
0
 62
     0
 10
-12.65954602471488
 20
7.861233712454049
 30
0.0
 11
-12.65954602471488
 21
7.861233712454049
 31
0.0
  0
LINE
  5
53FBB
  8
0
 62
     0
 10
-12.725837285451121
 20
7.7949424517178096
 30
0.0
 11
-12.725837285451121
 21
7.7949424517178096
 31
0.0
  0
LINE
  5
53FBC
  8
0
 62
     0
 10
-12.79212854618736
 20
7.7286511909815721
 30
0.0
 11
-12.79212854618736
 21
7.7286511909815721
 31
0.0
  0
LINE
  5
53FBD
  8
0
 62
     0
 10
-12.8584198069236
 20
7.6623599302453327
 30
0.0
 11
-12.8584198069236
 21
7.6623599302453327
 31
0.0
  0
LINE
  5
53FBE
  8
0
 62
     0
 10
-11.035410136677021
 20
9.6179521219643931
 30
0.0
 11
-11.035410136677021
 21
9.6179521219643931
 31
0.0
  0
LINE
  5
53FBF
  8
0
 62
     0
 10
-11.10170139741326
 20
9.5516608612281537
 30
0.0
 11
-11.10170139741326
 21
9.5516608612281537
 31
0.0
  0
LINE
  5
53FC0
  8
0
 62
     0
 10
-11.167992658149499
 20
9.4853696004919144
 30
0.0
 11
-11.167992658149499
 21
9.4853696004919144
 31
0.0
  0
LINE
  5
53FC1
  8
0
 62
     0
 10
-11.23428391888574
 20
9.4190783397556732
 30
0.0
 11
-11.23428391888574
 21
9.4190783397556732
 31
0.0
  0
LINE
  5
53FC2
  8
0
 62
     0
 10
-11.30057517962198
 20
9.3527870790194356
 30
0.0
 11
-11.30057517962198
 21
9.3527870790194356
 31
0.0
  0
LINE
  5
53FC3
  8
0
 62
     0
 10
-11.366866440358219
 20
9.2864958182831963
 30
0.0
 11
-11.366866440358219
 21
9.2864958182831963
 31
0.0
  0
LINE
  5
53FC4
  8
0
 62
     0
 10
-11.43315770109445
 20
9.2202045575469551
 30
0.0
 11
-11.43315770109445
 21
9.2202045575469551
 31
0.0
  0
LINE
  5
53FC5
  8
0
 62
     0
 10
-11.499448961830691
 20
9.1539132968107175
 30
0.0
 11
-11.499448961830691
 21
9.1539132968107175
 31
0.0
  0
LINE
  5
53FC6
  8
0
 62
     0
 10
-11.56574022256693
 20
9.0876220360744782
 30
0.0
 11
-11.56574022256693
 21
9.0876220360744782
 31
0.0
  0
LINE
  5
53FC7
  8
0
 62
     0
 10
-11.632031483303169
 20
9.0213307753382388
 30
0.0
 11
-11.632031483303169
 21
9.0213307753382388
 31
0.0
  0
LINE
  5
53FC8
  8
0
 62
     0
 10
-11.698322744039411
 20
8.9550395146019994
 30
0.0
 11
-11.698322744039411
 21
8.9550395146019994
 31
0.0
  0
LINE
  5
53FC9
  8
0
 62
     0
 10
-11.76461400477565
 20
8.8887482538657601
 30
0.0
 11
-11.76461400477565
 21
8.8887482538657601
 31
0.0
  0
LINE
  5
53FCA
  8
0
 62
     0
 10
-11.830905265511889
 20
8.8224569931295207
 30
0.0
 11
-11.830905265511889
 21
8.8224569931295207
 31
0.0
  0
LINE
  5
53FCB
  8
0
 62
     0
 10
-11.897196526248131
 20
8.7561657323932813
 30
0.0
 11
-11.897196526248131
 21
8.7561657323932813
 31
0.0
  0
LINE
  5
53FCC
  8
0
 62
     0
 10
-11.96348778698437
 20
8.6898744716570402
 30
0.0
 11
-11.96348778698437
 21
8.6898744716570402
 31
0.0
  0
LINE
  5
53FCD
  8
0
 62
     0
 10
-12.029779047720609
 20
8.6235832109208026
 30
0.0
 11
-12.029779047720609
 21
8.6235832109208026
 31
0.0
  0
LINE
  5
53FCE
  8
0
 62
     0
 10
-12.09607030845685
 20
8.5572919501845632
 30
0.0
 11
-12.09607030845685
 21
8.5572919501845632
 31
0.0
  0
LINE
  5
53FCF
  8
0
 62
     0
 10
-12.16236156919309
 20
8.4910006894483239
 30
0.0
 11
-12.16236156919309
 21
8.4910006894483239
 31
0.0
  0
LINE
  5
53FD0
  8
0
 62
     0
 10
-12.228652829929329
 20
8.4247094287120845
 30
0.0
 11
-12.228652829929329
 21
8.4247094287120845
 31
0.0
  0
LINE
  5
53FD1
  8
0
 62
     0
 10
-12.29494409066557
 20
8.3584181679758451
 30
0.0
 11
-12.29494409066557
 21
8.3584181679758451
 31
0.0
  0
LINE
  5
53FD2
  8
0
 62
     0
 10
-12.36123535140181
 20
8.2921269072396058
 30
0.0
 11
-12.36123535140181
 21
8.2921269072396058
 31
0.0
  0
LINE
  5
53FD3
  8
0
 62
     0
 10
-12.427526612138051
 20
8.2258356465033664
 30
0.0
 11
-12.427526612138051
 21
8.2258356465033664
 31
0.0
  0
LINE
  5
53FD4
  8
0
 62
     0
 10
-12.493817872874279
 20
8.159544385767127
 30
0.0
 11
-12.493817872874279
 21
8.159544385767127
 31
0.0
  0
LINE
  5
53FD5
  8
0
 62
     0
 10
-12.560109133610521
 20
8.0932531250308877
 30
0.0
 11
-12.560109133610521
 21
8.0932531250308877
 31
0.0
  0
LINE
  5
53FD6
  8
0
 62
     0
 10
-12.62640039434676
 20
8.0269618642946483
 30
0.0
 11
-12.62640039434676
 21
8.0269618642946483
 31
0.0
  0
LINE
  5
53FD7
  8
0
 62
     0
 10
-12.692691655082999
 20
7.9606706035584081
 30
0.0
 11
-12.692691655082999
 21
7.9606706035584081
 31
0.0
  0
LINE
  5
53FD8
  8
0
 62
     0
 10
-12.75898291581924
 20
7.8943793428221696
 30
0.0
 11
-12.75898291581924
 21
7.8943793428221696
 31
0.0
  0
LINE
  5
53FD9
  8
0
 62
     0
 10
-12.82527417655548
 20
7.8280880820859311
 30
0.0
 11
-12.82527417655548
 21
7.8280880820859311
 31
0.0
  0
LINE
  5
53FDA
  8
0
 62
     0
 10
-12.891565437291719
 20
7.7617968213496926
 30
0.0
 11
-12.891565437291719
 21
7.7617968213496926
 31
0.0
  0
LINE
  5
53FDB
  8
0
 62
     0
 10
-11.00226450630889
 20
9.7836802738049933
 30
0.0
 11
-11.00226450630889
 21
9.7836802738049933
 31
0.0
  0
LINE
  5
53FDC
  8
0
 62
     0
 10
-11.06855576704513
 20
9.7173890130687521
 30
0.0
 11
-11.06855576704513
 21
9.7173890130687521
 31
0.0
  0
LINE
  5
53FDD
  8
0
 62
     0
 10
-11.134847027781371
 20
9.6510977523325145
 30
0.0
 11
-11.134847027781371
 21
9.6510977523325145
 31
0.0
  0
LINE
  5
53FDE
  8
0
 62
     0
 10
-11.20113828851761
 20
9.5848064915962752
 30
0.0
 11
-11.20113828851761
 21
9.5848064915962752
 31
0.0
  0
LINE
  5
53FDF
  8
0
 62
     0
 10
-11.267429549253849
 20
9.5185152308600358
 30
0.0
 11
-11.267429549253849
 21
9.5185152308600358
 31
0.0
  0
LINE
  5
53FE0
  8
0
 62
     0
 10
-11.333720809990091
 20
9.4522239701237964
 30
0.0
 11
-11.333720809990091
 21
9.4522239701237964
 31
0.0
  0
LINE
  5
53FE1
  8
0
 62
     0
 10
-11.40001207072633
 20
9.3859327093875571
 30
0.0
 11
-11.40001207072633
 21
9.3859327093875571
 31
0.0
  0
LINE
  5
53FE2
  8
0
 62
     0
 10
-11.466303331462569
 20
9.3196414486513177
 30
0.0
 11
-11.466303331462569
 21
9.3196414486513177
 31
0.0
  0
LINE
  5
53FE3
  8
0
 62
     0
 10
-11.53259459219881
 20
9.2533501879150784
 30
0.0
 11
-11.53259459219881
 21
9.2533501879150784
 31
0.0
  0
LINE
  5
53FE4
  8
0
 62
     0
 10
-11.59888585293505
 20
9.1870589271788372
 30
0.0
 11
-11.59888585293505
 21
9.1870589271788372
 31
0.0
  0
LINE
  5
53FE5
  8
0
 62
     0
 10
-11.665177113671289
 20
9.1207676664425996
 30
0.0
 11
-11.665177113671289
 21
9.1207676664425996
 31
0.0
  0
LINE
  5
53FE6
  8
0
 62
     0
 10
-11.73146837440753
 20
9.0544764057063603
 30
0.0
 11
-11.73146837440753
 21
9.0544764057063603
 31
0.0
  0
LINE
  5
53FE7
  8
0
 62
     0
 10
-11.797759635143761
 20
8.9881851449701209
 30
0.0
 11
-11.797759635143761
 21
8.9881851449701209
 31
0.0
  0
LINE
  5
53FE8
  8
0
 62
     0
 10
-11.86405089588
 20
8.9218938842338815
 30
0.0
 11
-11.86405089588
 21
8.9218938842338815
 31
0.0
  0
LINE
  5
53FE9
  8
0
 62
     0
 10
-11.93034215661624
 20
8.8556026234976422
 30
0.0
 11
-11.93034215661624
 21
8.8556026234976422
 31
0.0
  0
LINE
  5
53FEA
  8
0
 62
     0
 10
-11.996633417352481
 20
8.7893113627614028
 30
0.0
 11
-11.996633417352481
 21
8.7893113627614028
 31
0.0
  0
LINE
  5
53FEB
  8
0
 62
     0
 10
-12.06292467808872
 20
8.7230201020251634
 30
0.0
 11
-12.06292467808872
 21
8.7230201020251634
 31
0.0
  0
LINE
  5
53FEC
  8
0
 62
     0
 10
-12.129215938824959
 20
8.6567288412889241
 30
0.0
 11
-12.129215938824959
 21
8.6567288412889241
 31
0.0
  0
LINE
  5
53FED
  8
0
 62
     0
 10
-12.195507199561201
 20
8.5904375805526847
 30
0.0
 11
-12.195507199561201
 21
8.5904375805526847
 31
0.0
  0
LINE
  5
53FEE
  8
0
 62
     0
 10
-12.26179846029744
 20
8.5241463198164453
 30
0.0
 11
-12.26179846029744
 21
8.5241463198164453
 31
0.0
  0
LINE
  5
53FEF
  8
0
 62
     0
 10
-12.328089721033679
 20
8.4578550590802042
 30
0.0
 11
-12.328089721033679
 21
8.4578550590802042
 31
0.0
  0
LINE
  5
53FF0
  8
0
 62
     0
 10
-12.39438098176992
 20
8.3915637983439666
 30
0.0
 11
-12.39438098176992
 21
8.3915637983439666
 31
0.0
  0
LINE
  5
53FF1
  8
0
 62
     0
 10
-12.46067224250616
 20
8.3252725376077272
 30
0.0
 11
-12.46067224250616
 21
8.3252725376077272
 31
0.0
  0
LINE
  5
53FF2
  8
0
 62
     0
 10
-12.526963503242399
 20
8.2589812768714879
 30
0.0
 11
-12.526963503242399
 21
8.2589812768714879
 31
0.0
  0
LINE
  5
53FF3
  8
0
 62
     0
 10
-12.59325476397864
 20
8.1926900161352485
 30
0.0
 11
-12.59325476397864
 21
8.1926900161352485
 31
0.0
  0
LINE
  5
53FF4
  8
0
 62
     0
 10
-12.65954602471488
 20
8.1263987553990091
 30
0.0
 11
-12.65954602471488
 21
8.1263987553990091
 31
0.0
  0
LINE
  5
53FF5
  8
0
 62
     0
 10
-12.725837285451121
 20
8.0601074946627698
 30
0.0
 11
-12.725837285451121
 21
8.0601074946627698
 31
0.0
  0
LINE
  5
53FF6
  8
0
 62
     0
 10
-12.79212854618736
 20
7.9938162339265313
 30
0.0
 11
-12.79212854618736
 21
7.9938162339265313
 31
0.0
  0
LINE
  5
53FF7
  8
0
 62
     0
 10
-12.858419806923591
 20
7.9275249731902919
 30
0.0
 11
-12.858419806923591
 21
7.9275249731902919
 31
0.0
  0
LINE
  5
53FF8
  8
0
 62
     0
 10
-11.03541013667701
 20
9.8831171649093541
 30
0.0
 11
-11.03541013667701
 21
9.8831171649093541
 31
0.0
  0
LINE
  5
53FF9
  8
0
 62
     0
 10
-11.101701397413249
 20
9.8168259041731147
 30
0.0
 11
-11.101701397413249
 21
9.8168259041731147
 31
0.0
  0
LINE
  5
53FFA
  8
0
 62
     0
 10
-11.16799265814949
 20
9.7505346434368754
 30
0.0
 11
-11.16799265814949
 21
9.7505346434368754
 31
0.0
  0
LINE
  5
53FFB
  8
0
 62
     0
 10
-11.23428391888573
 20
9.684243382700636
 30
0.0
 11
-11.23428391888573
 21
9.684243382700636
 31
0.0
  0
LINE
  5
53FFC
  8
0
 62
     0
 10
-11.300575179621969
 20
9.6179521219643966
 30
0.0
 11
-11.300575179621969
 21
9.6179521219643966
 31
0.0
  0
LINE
  5
53FFD
  8
0
 62
     0
 10
-11.36686644035821
 20
9.5516608612281573
 30
0.0
 11
-11.36686644035821
 21
9.5516608612281573
 31
0.0
  0
LINE
  5
53FFE
  8
0
 62
     0
 10
-11.43315770109445
 20
9.4853696004919161
 30
0.0
 11
-11.43315770109445
 21
9.4853696004919161
 31
0.0
  0
LINE
  5
53FFF
  8
0
 62
     0
 10
-11.499448961830691
 20
9.4190783397556785
 30
0.0
 11
-11.499448961830691
 21
9.4190783397556785
 31
0.0
  0
LINE
  5
54000
  8
0
 62
     0
 10
-11.56574022256693
 20
9.3527870790194392
 30
0.0
 11
-11.56574022256693
 21
9.3527870790194392
 31
0.0
  0
LINE
  5
54001
  8
0
 62
     0
 10
-11.632031483303169
 20
9.2864958182831998
 30
0.0
 11
-11.632031483303169
 21
9.2864958182831998
 31
0.0
  0
LINE
  5
54002
  8
0
 62
     0
 10
-11.698322744039411
 20
9.2202045575469604
 30
0.0
 11
-11.698322744039411
 21
9.2202045575469604
 31
0.0
  0
LINE
  5
54003
  8
0
 62
     0
 10
-11.76461400477565
 20
9.1539132968107211
 30
0.0
 11
-11.76461400477565
 21
9.1539132968107211
 31
0.0
  0
LINE
  5
54004
  8
0
 62
     0
 10
-11.830905265511889
 20
9.0876220360744817
 30
0.0
 11
-11.830905265511889
 21
9.0876220360744817
 31
0.0
  0
LINE
  5
54005
  8
0
 62
     0
 10
-11.897196526248131
 20
9.0213307753382423
 30
0.0
 11
-11.897196526248131
 21
9.0213307753382423
 31
0.0
  0
LINE
  5
54006
  8
0
 62
     0
 10
-11.963487786984359
 20
8.9550395146020012
 30
0.0
 11
-11.963487786984359
 21
8.9550395146020012
 31
0.0
  0
LINE
  5
54007
  8
0
 62
     0
 10
-12.0297790477206
 20
8.8887482538657636
 30
0.0
 11
-12.0297790477206
 21
8.8887482538657636
 31
0.0
  0
LINE
  5
54008
  8
0
 62
     0
 10
-12.09607030845684
 20
8.8224569931295242
 30
0.0
 11
-12.09607030845684
 21
8.8224569931295242
 31
0.0
  0
LINE
  5
54009
  8
0
 62
     0
 10
-12.162361569193081
 20
8.7561657323932849
 30
0.0
 11
-12.162361569193081
 21
8.7561657323932849
 31
0.0
  0
LINE
  5
5400A
  8
0
 62
     0
 10
-12.22865282992932
 20
8.6898744716570455
 30
0.0
 11
-12.22865282992932
 21
8.6898744716570455
 31
0.0
  0
LINE
  5
5400B
  8
0
 62
     0
 10
-12.29494409066556
 20
8.6235832109208062
 30
0.0
 11
-12.29494409066556
 21
8.6235832109208062
 31
0.0
  0
LINE
  5
5400C
  8
0
 62
     0
 10
-12.361235351401801
 20
8.5572919501845668
 30
0.0
 11
-12.361235351401801
 21
8.5572919501845668
 31
0.0
  0
LINE
  5
5400D
  8
0
 62
     0
 10
-12.42752661213804
 20
8.4910006894483274
 30
0.0
 11
-12.42752661213804
 21
8.4910006894483274
 31
0.0
  0
LINE
  5
5400E
  8
0
 62
     0
 10
-12.493817872874279
 20
8.4247094287120881
 30
0.0
 11
-12.493817872874279
 21
8.4247094287120881
 31
0.0
  0
LINE
  5
5400F
  8
0
 62
     0
 10
-12.560109133610521
 20
8.3584181679758487
 30
0.0
 11
-12.560109133610521
 21
8.3584181679758487
 31
0.0
  0
LINE
  5
54010
  8
0
 62
     0
 10
-12.62640039434676
 20
8.2921269072396093
 30
0.0
 11
-12.62640039434676
 21
8.2921269072396093
 31
0.0
  0
LINE
  5
54011
  8
0
 62
     0
 10
-12.692691655082999
 20
8.2258356465033682
 30
0.0
 11
-12.692691655082999
 21
8.2258356465033682
 31
0.0
  0
LINE
  5
54012
  8
0
 62
     0
 10
-12.75898291581924
 20
8.1595443857671306
 30
0.0
 11
-12.75898291581924
 21
8.1595443857671306
 31
0.0
  0
LINE
  5
54013
  8
0
 62
     0
 10
-12.82527417655548
 20
8.0932531250308912
 30
0.0
 11
-12.82527417655548
 21
8.0932531250308912
 31
0.0
  0
LINE
  5
54014
  8
0
 62
     0
 10
-12.891565437291719
 20
8.0269618642946519
 30
0.0
 11
-12.891565437291719
 21
8.0269618642946519
 31
0.0
  0
LINE
  5
54015
  8
0
 62
     0
 10
-11.002264506308901
 20
10.048845316749951
 30
0.0
 11
-11.002264506308901
 21
10.048845316749951
 31
0.0
  0
LINE
  5
54016
  8
0
 62
     0
 10
-11.06855576704514
 20
9.9825540560137078
 30
0.0
 11
-11.06855576704514
 21
9.9825540560137078
 31
0.0
  0
LINE
  5
54017
  8
0
 62
     0
 10
-11.13484702778138
 20
9.9162627952774685
 30
0.0
 11
-11.13484702778138
 21
9.9162627952774685
 31
0.0
  0
LINE
  5
54018
  8
0
 62
     0
 10
-11.201138288517621
 20
9.8499715345412291
 30
0.0
 11
-11.201138288517621
 21
9.8499715345412291
 31
0.0
  0
LINE
  5
54019
  8
0
 62
     0
 10
-11.26742954925386
 20
9.7836802738049897
 30
0.0
 11
-11.26742954925386
 21
9.7836802738049897
 31
0.0
  0
LINE
  5
5401A
  8
0
 62
     0
 10
-11.333720809990091
 20
9.7173890130687504
 30
0.0
 11
-11.333720809990091
 21
9.7173890130687504
 31
0.0
  0
LINE
  5
5401B
  8
0
 62
     0
 10
-11.40001207072633
 20
9.6510977523325092
 30
0.0
 11
-11.40001207072633
 21
9.6510977523325092
 31
0.0
  0
LINE
  5
5401C
  8
0
 62
     0
 10
-11.466303331462569
 20
9.5848064915962716
 30
0.0
 11
-11.466303331462569
 21
9.5848064915962716
 31
0.0
  0
LINE
  5
5401D
  8
0
 62
     0
 10
-11.53259459219881
 20
9.5185152308600323
 30
0.0
 11
-11.53259459219881
 21
9.5185152308600323
 31
0.0
  0
LINE
  5
5401E
  8
0
 62
     0
 10
-11.59888585293505
 20
9.4522239701237911
 30
0.0
 11
-11.59888585293505
 21
9.4522239701237911
 31
0.0
  0
LINE
  5
5401F
  8
0
 62
     0
 10
-11.665177113671289
 20
9.3859327093875535
 30
0.0
 11
-11.665177113671289
 21
9.3859327093875535
 31
0.0
  0
LINE
  5
54020
  8
0
 62
     0
 10
-11.73146837440753
 20
9.3196414486513142
 30
0.0
 11
-11.73146837440753
 21
9.3196414486513142
 31
0.0
  0
LINE
  5
54021
  8
0
 62
     0
 10
-11.79775963514377
 20
9.2533501879150748
 30
0.0
 11
-11.79775963514377
 21
9.2533501879150748
 31
0.0
  0
LINE
  5
54022
  8
0
 62
     0
 10
-11.864050895880011
 20
9.1870589271788354
 30
0.0
 11
-11.864050895880011
 21
9.1870589271788354
 31
0.0
  0
LINE
  5
54023
  8
0
 62
     0
 10
-11.93034215661625
 20
9.1207676664425961
 30
0.0
 11
-11.93034215661625
 21
9.1207676664425961
 31
0.0
  0
LINE
  5
54024
  8
0
 62
     0
 10
-11.99663341735249
 20
9.0544764057063567
 30
0.0
 11
-11.99663341735249
 21
9.0544764057063567
 31
0.0
  0
LINE
  5
54025
  8
0
 62
     0
 10
-12.062924678088731
 20
8.9881851449701173
 30
0.0
 11
-12.062924678088731
 21
8.9881851449701173
 31
0.0
  0
LINE
  5
54026
  8
0
 62
     0
 10
-12.12921593882497
 20
8.9218938842338762
 30
0.0
 11
-12.12921593882497
 21
8.9218938842338762
 31
0.0
  0
LINE
  5
54027
  8
0
 62
     0
 10
-12.195507199561209
 20
8.8556026234976386
 30
0.0
 11
-12.195507199561209
 21
8.8556026234976386
 31
0.0
  0
LINE
  5
54028
  8
0
 62
     0
 10
-12.261798460297451
 20
8.7893113627613992
 30
0.0
 11
-12.261798460297451
 21
8.7893113627613992
 31
0.0
  0
LINE
  5
54029
  8
0
 62
     0
 10
-12.32808972103369
 20
8.7230201020251599
 30
0.0
 11
-12.32808972103369
 21
8.7230201020251599
 31
0.0
  0
LINE
  5
5402A
  8
0
 62
     0
 10
-12.394380981769929
 20
8.6567288412889205
 30
0.0
 11
-12.394380981769929
 21
8.6567288412889205
 31
0.0
  0
LINE
  5
5402B
  8
0
 62
     0
 10
-12.46067224250617
 20
8.5904375805526811
 30
0.0
 11
-12.46067224250617
 21
8.5904375805526811
 31
0.0
  0
LINE
  5
5402C
  8
0
 62
     0
 10
-12.526963503242399
 20
8.5241463198164418
 30
0.0
 11
-12.526963503242399
 21
8.5241463198164418
 31
0.0
  0
LINE
  5
5402D
  8
0
 62
     0
 10
-12.59325476397864
 20
8.4578550590802024
 30
0.0
 11
-12.59325476397864
 21
8.4578550590802024
 31
0.0
  0
LINE
  5
5402E
  8
0
 62
     0
 10
-12.65954602471488
 20
8.391563798343963
 30
0.0
 11
-12.65954602471488
 21
8.391563798343963
 31
0.0
  0
LINE
  5
5402F
  8
0
 62
     0
 10
-12.725837285451121
 20
8.3252725376077237
 30
0.0
 11
-12.725837285451121
 21
8.3252725376077237
 31
0.0
  0
LINE
  5
54030
  8
0
 62
     0
 10
-12.79212854618736
 20
8.2589812768714843
 30
0.0
 11
-12.79212854618736
 21
8.2589812768714843
 31
0.0
  0
LINE
  5
54031
  8
0
 62
     0
 10
-12.8584198069236
 20
8.1926900161352432
 30
0.0
 11
-12.8584198069236
 21
8.1926900161352432
 31
0.0
  0
LINE
  5
54032
  8
0
 62
     0
 10
-11.035410136677021
 20
10.148282207854299
 30
0.0
 11
-11.035410136677021
 21
10.148282207854299
 31
0.0
  0
LINE
  5
54033
  8
0
 62
     0
 10
-11.10170139741326
 20
10.08199094711806
 30
0.0
 11
-11.10170139741326
 21
10.08199094711806
 31
0.0
  0
LINE
  5
54034
  8
0
 62
     0
 10
-11.167992658149499
 20
10.01569968638182
 30
0.0
 11
-11.167992658149499
 21
10.01569968638182
 31
0.0
  0
LINE
  5
54035
  8
0
 62
     0
 10
-11.23428391888574
 20
9.9494084256455881
 30
0.0
 11
-11.23428391888574
 21
9.9494084256455881
 31
0.0
  0
LINE
  5
54036
  8
0
 62
     0
 10
-11.30057517962198
 20
9.8831171649093488
 30
0.0
 11
-11.30057517962198
 21
9.8831171649093488
 31
0.0
  0
LINE
  5
54037
  8
0
 62
     0
 10
-11.366866440358219
 20
9.8168259041731094
 30
0.0
 11
-11.366866440358219
 21
9.8168259041731094
 31
0.0
  0
LINE
  5
54038
  8
0
 62
     0
 10
-11.43315770109445
 20
9.75053464343687
 30
0.0
 11
-11.43315770109445
 21
9.75053464343687
 31
0.0
  0
LINE
  5
54039
  8
0
 62
     0
 10
-11.499448961830691
 20
9.6842433827006307
 30
0.0
 11
-11.499448961830691
 21
9.6842433827006307
 31
0.0
  0
LINE
  5
5403A
  8
0
 62
     0
 10
-11.56574022256693
 20
9.6179521219643913
 30
0.0
 11
-11.56574022256693
 21
9.6179521219643913
 31
0.0
  0
LINE
  5
5403B
  8
0
 62
     0
 10
-11.632031483303169
 20
9.5516608612281502
 30
0.0
 11
-11.632031483303169
 21
9.5516608612281502
 31
0.0
  0
LINE
  5
5403C
  8
0
 62
     0
 10
-11.698322744039411
 20
9.4853696004919126
 30
0.0
 11
-11.698322744039411
 21
9.4853696004919126
 31
0.0
  0
LINE
  5
5403D
  8
0
 62
     0
 10
-11.76461400477565
 20
9.4190783397556732
 30
0.0
 11
-11.76461400477565
 21
9.4190783397556732
 31
0.0
  0
LINE
  5
5403E
  8
0
 62
     0
 10
-11.830905265511889
 20
9.3527870790194338
 30
0.0
 11
-11.830905265511889
 21
9.3527870790194338
 31
0.0
  0
LINE
  5
5403F
  8
0
 62
     0
 10
-11.897196526248131
 20
9.2864958182831945
 30
0.0
 11
-11.897196526248131
 21
9.2864958182831945
 31
0.0
  0
LINE
  5
54040
  8
0
 62
     0
 10
-11.96348778698437
 20
9.2202045575469551
 30
0.0
 11
-11.96348778698437
 21
9.2202045575469551
 31
0.0
  0
LINE
  5
54041
  8
0
 62
     0
 10
-12.029779047720609
 20
9.1539132968107157
 30
0.0
 11
-12.029779047720609
 21
9.1539132968107157
 31
0.0
  0
LINE
  5
54042
  8
0
 62
     0
 10
-12.09607030845685
 20
9.0876220360744764
 30
0.0
 11
-12.09607030845685
 21
9.0876220360744764
 31
0.0
  0
LINE
  5
54043
  8
0
 62
     0
 10
-12.16236156919309
 20
9.021330775338237
 30
0.0
 11
-12.16236156919309
 21
9.021330775338237
 31
0.0
  0
LINE
  5
54044
  8
0
 62
     0
 10
-12.228652829929329
 20
8.9550395146019977
 30
0.0
 11
-12.228652829929329
 21
8.9550395146019977
 31
0.0
  0
LINE
  5
54045
  8
0
 62
     0
 10
-12.29494409066557
 20
8.8887482538657583
 30
0.0
 11
-12.29494409066557
 21
8.8887482538657583
 31
0.0
  0
LINE
  5
54046
  8
0
 62
     0
 10
-12.36123535140181
 20
8.8224569931295171
 30
0.0
 11
-12.36123535140181
 21
8.8224569931295171
 31
0.0
  0
LINE
  5
54047
  8
0
 62
     0
 10
-12.427526612138051
 20
8.7561657323932796
 30
0.0
 11
-12.427526612138051
 21
8.7561657323932796
 31
0.0
  0
LINE
  5
54048
  8
0
 62
     0
 10
-12.493817872874279
 20
8.6898744716570402
 30
0.0
 11
-12.493817872874279
 21
8.6898744716570402
 31
0.0
  0
LINE
  5
54049
  8
0
 62
     0
 10
-12.560109133610521
 20
8.6235832109208008
 30
0.0
 11
-12.560109133610521
 21
8.6235832109208008
 31
0.0
  0
LINE
  5
5404A
  8
0
 62
     0
 10
-12.62640039434676
 20
8.5572919501845615
 30
0.0
 11
-12.62640039434676
 21
8.5572919501845615
 31
0.0
  0
LINE
  5
5404B
  8
0
 62
     0
 10
-12.692691655082999
 20
8.4910006894483221
 30
0.0
 11
-12.692691655082999
 21
8.4910006894483221
 31
0.0
  0
LINE
  5
5404C
  8
0
 62
     0
 10
-12.75898291581924
 20
8.4247094287120827
 30
0.0
 11
-12.75898291581924
 21
8.4247094287120827
 31
0.0
  0
LINE
  5
5404D
  8
0
 62
     0
 10
-12.82527417655548
 20
8.3584181679758434
 30
0.0
 11
-12.82527417655548
 21
8.3584181679758434
 31
0.0
  0
LINE
  5
5404E
  8
0
 62
     0
 10
-12.891565437291719
 20
8.2921269072396022
 30
0.0
 11
-12.891565437291719
 21
8.2921269072396022
 31
0.0
  0
LINE
  5
5404F
  8
0
 62
     0
 10
-11.06855576704514
 20
10.24771909895866
 30
0.0
 11
-11.06855576704514
 21
10.24771909895866
 31
0.0
  0
LINE
  5
54050
  8
0
 62
     0
 10
-11.13484702778138
 20
10.181427838222421
 30
0.0
 11
-11.13484702778138
 21
10.181427838222421
 31
0.0
  0
LINE
  5
54051
  8
0
 62
     0
 10
-11.201138288517621
 20
10.11513657748619
 30
0.0
 11
-11.201138288517621
 21
10.11513657748619
 31
0.0
  0
LINE
  5
54052
  8
0
 62
     0
 10
-11.26742954925386
 20
10.048845316749951
 30
0.0
 11
-11.26742954925386
 21
10.048845316749951
 31
0.0
  0
LINE
  5
54053
  8
0
 62
     0
 10
-11.333720809990091
 20
9.9825540560137078
 30
0.0
 11
-11.333720809990091
 21
9.9825540560137078
 31
0.0
  0
LINE
  5
54054
  8
0
 62
     0
 10
-11.40001207072633
 20
9.9162627952774685
 30
0.0
 11
-11.40001207072633
 21
9.9162627952774685
 31
0.0
  0
LINE
  5
54055
  8
0
 62
     0
 10
-11.466303331462569
 20
9.8499715345412291
 30
0.0
 11
-11.466303331462569
 21
9.8499715345412291
 31
0.0
  0
LINE
  5
54056
  8
0
 62
     0
 10
-11.53259459219881
 20
9.7836802738049897
 30
0.0
 11
-11.53259459219881
 21
9.7836802738049897
 31
0.0
  0
LINE
  5
54057
  8
0
 62
     0
 10
-11.59888585293505
 20
9.7173890130687504
 30
0.0
 11
-11.59888585293505
 21
9.7173890130687504
 31
0.0
  0
LINE
  5
54058
  8
0
 62
     0
 10
-11.665177113671289
 20
9.6510977523325092
 30
0.0
 11
-11.665177113671289
 21
9.6510977523325092
 31
0.0
  0
LINE
  5
54059
  8
0
 62
     0
 10
-11.73146837440753
 20
9.5848064915962716
 30
0.0
 11
-11.73146837440753
 21
9.5848064915962716
 31
0.0
  0
LINE
  5
5405A
  8
0
 62
     0
 10
-11.79775963514377
 20
9.5185152308600323
 30
0.0
 11
-11.79775963514377
 21
9.5185152308600323
 31
0.0
  0
LINE
  5
5405B
  8
0
 62
     0
 10
-11.864050895880011
 20
9.4522239701237911
 30
0.0
 11
-11.864050895880011
 21
9.4522239701237911
 31
0.0
  0
LINE
  5
5405C
  8
0
 62
     0
 10
-11.93034215661625
 20
9.3859327093875535
 30
0.0
 11
-11.93034215661625
 21
9.3859327093875535
 31
0.0
  0
LINE
  5
5405D
  8
0
 62
     0
 10
-11.99663341735249
 20
9.3196414486513142
 30
0.0
 11
-11.99663341735249
 21
9.3196414486513142
 31
0.0
  0
LINE
  5
5405E
  8
0
 62
     0
 10
-12.062924678088731
 20
9.2533501879150748
 30
0.0
 11
-12.062924678088731
 21
9.2533501879150748
 31
0.0
  0
LINE
  5
5405F
  8
0
 62
     0
 10
-12.12921593882497
 20
9.1870589271788354
 30
0.0
 11
-12.12921593882497
 21
9.1870589271788354
 31
0.0
  0
LINE
  5
54060
  8
0
 62
     0
 10
-12.195507199561209
 20
9.1207676664425961
 30
0.0
 11
-12.195507199561209
 21
9.1207676664425961
 31
0.0
  0
LINE
  5
54061
  8
0
 62
     0
 10
-12.261798460297451
 20
9.0544764057063567
 30
0.0
 11
-12.261798460297451
 21
9.0544764057063567
 31
0.0
  0
LINE
  5
54062
  8
0
 62
     0
 10
-12.32808972103369
 20
8.9881851449701173
 30
0.0
 11
-12.32808972103369
 21
8.9881851449701173
 31
0.0
  0
LINE
  5
54063
  8
0
 62
     0
 10
-12.394380981769929
 20
8.9218938842338762
 30
0.0
 11
-12.394380981769929
 21
8.9218938842338762
 31
0.0
  0
LINE
  5
54064
  8
0
 62
     0
 10
-12.46067224250617
 20
8.8556026234976386
 30
0.0
 11
-12.46067224250617
 21
8.8556026234976386
 31
0.0
  0
LINE
  5
54065
  8
0
 62
     0
 10
-12.526963503242399
 20
8.7893113627613992
 30
0.0
 11
-12.526963503242399
 21
8.7893113627613992
 31
0.0
  0
LINE
  5
54066
  8
0
 62
     0
 10
-12.59325476397864
 20
8.7230201020251599
 30
0.0
 11
-12.59325476397864
 21
8.7230201020251599
 31
0.0
  0
LINE
  5
54067
  8
0
 62
     0
 10
-12.65954602471488
 20
8.6567288412889205
 30
0.0
 11
-12.65954602471488
 21
8.6567288412889205
 31
0.0
  0
LINE
  5
54068
  8
0
 62
     0
 10
-12.725837285451121
 20
8.5904375805526811
 30
0.0
 11
-12.725837285451121
 21
8.5904375805526811
 31
0.0
  0
LINE
  5
54069
  8
0
 62
     0
 10
-12.79212854618736
 20
8.5241463198164418
 30
0.0
 11
-12.79212854618736
 21
8.5241463198164418
 31
0.0
  0
LINE
  5
5406A
  8
0
 62
     0
 10
-12.8584198069236
 20
8.4578550590802024
 30
0.0
 11
-12.8584198069236
 21
8.4578550590802024
 31
0.0
  0
LINE
  5
5406B
  8
0
 62
     0
 10
-11.366866440358219
 20
10.08199094711806
 30
0.0
 11
-11.366866440358219
 21
10.08199094711806
 31
0.0
  0
LINE
  5
5406C
  8
0
 62
     0
 10
-11.43315770109445
 20
10.01569968638182
 30
0.0
 11
-11.43315770109445
 21
10.01569968638182
 31
0.0
  0
LINE
  5
5406D
  8
0
 62
     0
 10
-11.499448961830691
 20
9.9494084256455846
 30
0.0
 11
-11.499448961830691
 21
9.9494084256455846
 31
0.0
  0
LINE
  5
5406E
  8
0
 62
     0
 10
-11.56574022256693
 20
9.8831171649093452
 30
0.0
 11
-11.56574022256693
 21
9.8831171649093452
 31
0.0
  0
LINE
  5
5406F
  8
0
 62
     0
 10
-11.632031483303169
 20
9.8168259041731059
 30
0.0
 11
-11.632031483303169
 21
9.8168259041731059
 31
0.0
  0
LINE
  5
54070
  8
0
 62
     0
 10
-11.698322744039411
 20
9.7505346434368665
 30
0.0
 11
-11.698322744039411
 21
9.7505346434368665
 31
0.0
  0
LINE
  5
54071
  8
0
 62
     0
 10
-11.76461400477565
 20
9.6842433827006271
 30
0.0
 11
-11.76461400477565
 21
9.6842433827006271
 31
0.0
  0
LINE
  5
54072
  8
0
 62
     0
 10
-11.830905265511889
 20
9.6179521219643878
 30
0.0
 11
-11.830905265511889
 21
9.6179521219643878
 31
0.0
  0
LINE
  5
54073
  8
0
 62
     0
 10
-11.897196526248131
 20
9.5516608612281484
 30
0.0
 11
-11.897196526248131
 21
9.5516608612281484
 31
0.0
  0
LINE
  5
54074
  8
0
 62
     0
 10
-11.96348778698437
 20
9.485369600491909
 30
0.0
 11
-11.96348778698437
 21
9.485369600491909
 31
0.0
  0
LINE
  5
54075
  8
0
 62
     0
 10
-12.029779047720609
 20
9.4190783397556697
 30
0.0
 11
-12.029779047720609
 21
9.4190783397556697
 31
0.0
  0
LINE
  5
54076
  8
0
 62
     0
 10
-12.09607030845685
 20
9.3527870790194303
 30
0.0
 11
-12.09607030845685
 21
9.3527870790194303
 31
0.0
  0
LINE
  5
54077
  8
0
 62
     0
 10
-12.16236156919309
 20
9.2864958182831892
 30
0.0
 11
-12.16236156919309
 21
9.2864958182831892
 31
0.0
  0
LINE
  5
54078
  8
0
 62
     0
 10
-12.228652829929329
 20
9.2202045575469516
 30
0.0
 11
-12.228652829929329
 21
9.2202045575469516
 31
0.0
  0
LINE
  5
54079
  8
0
 62
     0
 10
-12.29494409066557
 20
9.1539132968107122
 30
0.0
 11
-12.29494409066557
 21
9.1539132968107122
 31
0.0
  0
LINE
  5
5407A
  8
0
 62
     0
 10
-12.36123535140181
 20
9.0876220360744728
 30
0.0
 11
-12.36123535140181
 21
9.0876220360744728
 31
0.0
  0
LINE
  5
5407B
  8
0
 62
     0
 10
-12.427526612138051
 20
9.0213307753382335
 30
0.0
 11
-12.427526612138051
 21
9.0213307753382335
 31
0.0
  0
LINE
  5
5407C
  8
0
 62
     0
 10
-12.493817872874279
 20
8.9550395146019941
 30
0.0
 11
-12.493817872874279
 21
8.9550395146019941
 31
0.0
  0
LINE
  5
5407D
  8
0
 62
     0
 10
-12.560109133610521
 20
8.8887482538657547
 30
0.0
 11
-12.560109133610521
 21
8.8887482538657547
 31
0.0
  0
LINE
  5
5407E
  8
0
 62
     0
 10
-12.62640039434676
 20
8.8224569931295154
 30
0.0
 11
-12.62640039434676
 21
8.8224569931295154
 31
0.0
  0
LINE
  5
5407F
  8
0
 62
     0
 10
-12.692691655082999
 20
8.756165732393276
 30
0.0
 11
-12.692691655082999
 21
8.756165732393276
 31
0.0
  0
LINE
  5
54080
  8
0
 62
     0
 10
-12.75898291581924
 20
8.6898744716570366
 30
0.0
 11
-12.75898291581924
 21
8.6898744716570366
 31
0.0
  0
LINE
  5
54081
  8
0
 62
     0
 10
-12.82527417655548
 20
8.6235832109207973
 30
0.0
 11
-12.82527417655548
 21
8.6235832109207973
 31
0.0
  0
LINE
  5
54082
  8
0
 62
     0
 10
-12.891565437291719
 20
8.5572919501845561
 30
0.0
 11
-12.891565437291719
 21
8.5572919501845561
 31
0.0
  0
LINE
  5
54083
  8
0
 62
     0
 10
-11.73146837440753
 20
9.8499715345412273
 30
0.0
 11
-11.73146837440753
 21
9.8499715345412273
 31
0.0
  0
LINE
  5
54084
  8
0
 62
     0
 10
-11.797759635143761
 20
9.7836802738049862
 30
0.0
 11
-11.797759635143761
 21
9.7836802738049862
 31
0.0
  0
LINE
  5
54085
  8
0
 62
     0
 10
-11.86405089588
 20
9.7173890130687486
 30
0.0
 11
-11.86405089588
 21
9.7173890130687486
 31
0.0
  0
LINE
  5
54086
  8
0
 62
     0
 10
-11.93034215661624
 20
9.6510977523325092
 30
0.0
 11
-11.93034215661624
 21
9.6510977523325092
 31
0.0
  0
LINE
  5
54087
  8
0
 62
     0
 10
-11.996633417352481
 20
9.5848064915962699
 30
0.0
 11
-11.996633417352481
 21
9.5848064915962699
 31
0.0
  0
LINE
  5
54088
  8
0
 62
     0
 10
-12.06292467808872
 20
9.5185152308600305
 30
0.0
 11
-12.06292467808872
 21
9.5185152308600305
 31
0.0
  0
LINE
  5
54089
  8
0
 62
     0
 10
-12.129215938824959
 20
9.4522239701237911
 30
0.0
 11
-12.129215938824959
 21
9.4522239701237911
 31
0.0
  0
LINE
  5
5408A
  8
0
 62
     0
 10
-12.195507199561201
 20
9.3859327093875518
 30
0.0
 11
-12.195507199561201
 21
9.3859327093875518
 31
0.0
  0
LINE
  5
5408B
  8
0
 62
     0
 10
-12.26179846029744
 20
9.3196414486513124
 30
0.0
 11
-12.26179846029744
 21
9.3196414486513124
 31
0.0
  0
LINE
  5
5408C
  8
0
 62
     0
 10
-12.328089721033679
 20
9.253350187915073
 30
0.0
 11
-12.328089721033679
 21
9.253350187915073
 31
0.0
  0
LINE
  5
5408D
  8
0
 62
     0
 10
-12.39438098176992
 20
9.1870589271788337
 30
0.0
 11
-12.39438098176992
 21
9.1870589271788337
 31
0.0
  0
LINE
  5
5408E
  8
0
 62
     0
 10
-12.46067224250616
 20
9.1207676664425943
 30
0.0
 11
-12.46067224250616
 21
9.1207676664425943
 31
0.0
  0
LINE
  5
5408F
  8
0
 62
     0
 10
-12.526963503242399
 20
9.0544764057063531
 30
0.0
 11
-12.526963503242399
 21
9.0544764057063531
 31
0.0
  0
LINE
  5
54090
  8
0
 62
     0
 10
-12.59325476397864
 20
8.9881851449701156
 30
0.0
 11
-12.59325476397864
 21
8.9881851449701156
 31
0.0
  0
LINE
  5
54091
  8
0
 62
     0
 10
-12.65954602471488
 20
8.9218938842338762
 30
0.0
 11
-12.65954602471488
 21
8.9218938842338762
 31
0.0
  0
LINE
  5
54092
  8
0
 62
     0
 10
-12.725837285451121
 20
8.8556026234976368
 30
0.0
 11
-12.725837285451121
 21
8.8556026234976368
 31
0.0
  0
LINE
  5
54093
  8
0
 62
     0
 10
-12.79212854618736
 20
8.7893113627613975
 30
0.0
 11
-12.79212854618736
 21
8.7893113627613975
 31
0.0
  0
LINE
  5
54094
  8
0
 62
     0
 10
-12.858419806923591
 20
8.7230201020251581
 30
0.0
 11
-12.858419806923591
 21
8.7230201020251581
 31
0.0
  0
LINE
  5
54095
  8
0
 62
     0
 10
-12.0297790477206
 20
9.6842433827006271
 30
0.0
 11
-12.0297790477206
 21
9.6842433827006271
 31
0.0
  0
LINE
  5
54096
  8
0
 62
     0
 10
-12.09607030845684
 20
9.6179521219643895
 30
0.0
 11
-12.09607030845684
 21
9.6179521219643895
 31
0.0
  0
LINE
  5
54097
  8
0
 62
     0
 10
-12.162361569193081
 20
9.5516608612281502
 30
0.0
 11
-12.162361569193081
 21
9.5516608612281502
 31
0.0
  0
LINE
  5
54098
  8
0
 62
     0
 10
-12.22865282992932
 20
9.4853696004919108
 30
0.0
 11
-12.22865282992932
 21
9.4853696004919108
 31
0.0
  0
LINE
  5
54099
  8
0
 62
     0
 10
-12.29494409066556
 20
9.4190783397556714
 30
0.0
 11
-12.29494409066556
 21
9.4190783397556714
 31
0.0
  0
LINE
  5
5409A
  8
0
 62
     0
 10
-12.361235351401801
 20
9.3527870790194321
 30
0.0
 11
-12.361235351401801
 21
9.3527870790194321
 31
0.0
  0
LINE
  5
5409B
  8
0
 62
     0
 10
-12.42752661213804
 20
9.2864958182831927
 30
0.0
 11
-12.42752661213804
 21
9.2864958182831927
 31
0.0
  0
LINE
  5
5409C
  8
0
 62
     0
 10
-12.493817872874279
 20
9.2202045575469533
 30
0.0
 11
-12.493817872874279
 21
9.2202045575469533
 31
0.0
  0
LINE
  5
5409D
  8
0
 62
     0
 10
-12.560109133610521
 20
9.1539132968107122
 30
0.0
 11
-12.560109133610521
 21
9.1539132968107122
 31
0.0
  0
LINE
  5
5409E
  8
0
 62
     0
 10
-12.62640039434676
 20
9.0876220360744746
 30
0.0
 11
-12.62640039434676
 21
9.0876220360744746
 31
0.0
  0
LINE
  5
5409F
  8
0
 62
     0
 10
-12.692691655082999
 20
9.0213307753382352
 30
0.0
 11
-12.692691655082999
 21
9.0213307753382352
 31
0.0
  0
LINE
  5
540A0
  8
0
 62
     0
 10
-12.75898291581924
 20
8.9550395146019959
 30
0.0
 11
-12.75898291581924
 21
8.9550395146019959
 31
0.0
  0
LINE
  5
540A1
  8
0
 62
     0
 10
-12.82527417655548
 20
8.8887482538657565
 30
0.0
 11
-12.82527417655548
 21
8.8887482538657565
 31
0.0
  0
LINE
  5
540A2
  8
0
 62
     0
 10
-12.891565437291719
 20
8.8224569931295171
 30
0.0
 11
-12.891565437291719
 21
8.8224569931295171
 31
0.0
  0
LINE
  5
540A3
  8
0
 62
     0
 10
-12.328089721033679
 20
9.5185152308600252
 30
0.0
 11
-12.328089721033679
 21
9.5185152308600252
 31
0.0
  0
LINE
  5
540A4
  8
0
 62
     0
 10
-12.39438098176992
 20
9.4522239701237876
 30
0.0
 11
-12.39438098176992
 21
9.4522239701237876
 31
0.0
  0
LINE
  5
540A5
  8
0
 62
     0
 10
-12.46067224250616
 20
9.3859327093875482
 30
0.0
 11
-12.46067224250616
 21
9.3859327093875482
 31
0.0
  0
LINE
  5
540A6
  8
0
 62
     0
 10
-12.526963503242399
 20
9.3196414486513088
 30
0.0
 11
-12.526963503242399
 21
9.3196414486513088
 31
0.0
  0
LINE
  5
540A7
  8
0
 62
     0
 10
-12.59325476397864
 20
9.2533501879150695
 30
0.0
 11
-12.59325476397864
 21
9.2533501879150695
 31
0.0
  0
LINE
  5
540A8
  8
0
 62
     0
 10
-12.65954602471488
 20
9.1870589271788301
 30
0.0
 11
-12.65954602471488
 21
9.1870589271788301
 31
0.0
  0
LINE
  5
540A9
  8
0
 62
     0
 10
-12.725837285451121
 20
9.1207676664425907
 30
0.0
 11
-12.725837285451121
 21
9.1207676664425907
 31
0.0
  0
LINE
  5
540AA
  8
0
 62
     0
 10
-12.79212854618736
 20
9.0544764057063514
 30
0.0
 11
-12.79212854618736
 21
9.0544764057063514
 31
0.0
  0
LINE
  5
540AB
  8
0
 62
     0
 10
-12.858419806923591
 20
8.988185144970112
 30
0.0
 11
-12.858419806923591
 21
8.988185144970112
 31
0.0
  0
LINE
  5
540AC
  8
0
 62
     0
 10
-12.62640039434676
 20
9.3527870790194267
 30
0.0
 11
-12.62640039434676
 21
9.3527870790194267
 31
0.0
  0
LINE
  5
540AD
  8
0
 62
     0
 10
-12.692691655082999
 20
9.2864958182831874
 30
0.0
 11
-12.692691655082999
 21
9.2864958182831874
 31
0.0
  0
LINE
  5
540AE
  8
0
 62
     0
 10
-12.75898291581924
 20
9.220204557546948
 30
0.0
 11
-12.75898291581924
 21
9.220204557546948
 31
0.0
  0
LINE
  5
540AF
  8
0
 62
     0
 10
-12.82527417655548
 20
9.1539132968107086
 30
0.0
 11
-12.82527417655548
 21
9.1539132968107086
 31
0.0
  0
LINE
  5
540B0
  8
0
 62
     0
 10
-12.891565437291719
 20
9.0876220360744693
 30
0.0
 11
-12.891565437291719
 21
9.0876220360744693
 31
0.0
  0
ENDBLK
  5
540B2
  8
0
  0
BLOCK
  8
0
  2
*U3
 70
     1
 10
0.0
 20
0.0
 30
0.0
  3
*U3
  1

  0
TEXT
  5
540B4
  8
DIM
 10
-28.294735206414568
 20
7.0803173683266261
 30
0.0
 40
0.375
  1
3 5/8"
  7
SMOOTH
  0
ENDBLK
  5
540B6
  8
0
  0
BLOCK
  8
0
  2
*U4
 70
     1
 10
0.0
 20
0.0
 30
0.0
  3
*U4
  1

  0
TEXT
  5
540B8
  8
DIM
 10
-28.294735206414568
 20
21.861288489650629
 30
0.0
 40
0.375
  1
3 5/8"
  7
SMOOTH
  0
ENDBLK
  5
540BA
  8
0
  0
ENDSEC
  0
SECTION
  2
ENTITIES
  0
INSERT
  5
51A0D
  8
TITLE2
 66
     1
  2
TITLEBLOCK2018
 10
3.1056781759195569
 20
-0.9939857946867267
 30
0.0
 41
1.0920000000000001
 42
1.0920000000000001
 43
1.0920000000000001
  0
ATTRIB
  5
51A0F
  8
TITLE2
 10
-5.6883450797999888
 20
21.506847878935261
 30
0.0
 40
0.3982187365121544
  1
LP2 STD. MOD.
 41
0.8005305039787987
  7
GGATT
  2
DWG1
 70
     0
  0
ATTRIB
  5
51A10
  8
TITLE2
 10
-5.6883450797999888
 20
20.843149984748369
 30
0.0
 40
0.3982187365121544
  1
LIPPED SOLDIER
 41
0.8005305039787987
  7
GGATT
  2
DWG2
 70
     0
  0
ATTRIB
  5
51A11
  8
TITLE2
 10
-5.6883450797999888
 20
19.516666812000778
 30
0.0
 40
0.3982187365121584
  1

 41
0.8005305039787907
  7
GGATT
  2
PROJ1
 70
     0
  0
ATTRIB
  5
51A12
  8
TITLE2
 10
-5.6883450797999888
 20
18.85296891781389
 30
0.0
 40
0.3982187365121584
  1

 41
0.8005305039787907
  7
GGATT
  2
PROJ2
 70
     0
  0
ATTRIB
  5
51A13
  8
TITLE2
 10
-4.8004334516949454
 20
18.064319120193201
 30
0.0
 40
0.2654791576747862
  1
1 
 41
0.8005305039787947
  7
GGATT
  2
PAGE
 70
     0
  0
ATTRIB
  5
51A14
  8
TITLE2
 10
-1.9684061447427921
 20
18.064319120193201
 30
0.0
 40
0.2654791576747862
  1
3 JAN 18
 41
0.8005305039787943
  7
GGATT
  2
DATE
 70
     0
  0
ATTRIB
  5
51A15
  8
TITLE2
 10
-3.9477242153995511
 20
17.267881647168899
 30
0.0
 40
0.2654791576747883
  1

 41
0.8005305039787886
  7
GGATT
  2
ARCH
 70
     0
  0
ATTRIB
  5
51A16
  8
TITLE2
 10
-3.9477242153995511
 20
16.471444174144612
 30
0.0
 40
0.2654791576747883
  1

 41
0.8005305039787886
  7
GGATT
  2
CUST
 70
     0
  0
ATTRIB
  5
51A17
  8
TITLE2
 10
-3.9477242153995511
 20
15.67500670112028
 30
0.0
 40
0.2654791576747883
  1

 41
0.8005305039787886
  7
GGATT
  2
REP
 70
     0
  0
ATTRIB
  5
51A18
  8
TITLE2
 10
-3.593517275584138
 20
14.87856922809598
 30
0.0
 40
0.2654791576747883
  1

 41
0.8005305039787886
  7
GGATT
  2
OFFICE
 70
     0
  0
ATTRIB
  5
51A19
  8
TITLE2
 10
-4.3581954727075551
 20
14.08213175507168
 30
0.0
 40
0.2654791576747883
  1

 41
0.8005305039787959
  7
GGATT
  2
PLANT
 70
     0
  0
ATTRIB
  5
51A1A
  8
TITLE2
 10
-5.5147103743436823
 20
12.84834822598091
 30
0.0
 40
0.3975815865337155
  1

 41
0.800530503978797
  7
GGATT
  2
BRICK
 70
     0
  0
ATTRIB
  5
51A1B
  8
TITLE2
 10
-4.0710056851712384
 20
12.18778525581221
 30
0.0
 40
0.2654791576747883
  1

 41
0.8005305039787963
  7
GGATT
  2
PROCESS
 70
     0
  0
ATTRIB
  5
51A1C
  8
TITLE2
 10
-1.9457640462787971
 20
12.18778525581221
 30
0.0
 40
0.2654791576747883
  1

 41
0.8005305039787959
  7
GGATT
  2
BURN
 70
     0
  0
ATTRIB
  5
51A1D
  8
TITLE2
 10
-4.3581954727075551
 20
11.391347782787919
 30
0.0
 40
0.2654791576747883
  1

 41
0.8005305039787959
  7
GGATT
  2
TEXT
 70
     0
  0
ATTRIB
  5
51A1E
  8
TITLE2
 10
-2.2329538338151349
 20
10.594910309763611
 30
0.0
 40
0.2654791576747902
  1
1
 41
0.8005305039787897
  7
GGATT
  2
FACE
 70
     0
  0
ATTRIB
  5
51A1F
  8
TITLE2
 10
-4.3581954727075551
 20
9.0020353637150485
 30
0.0
 40
0.2654791576747893
  1
PLANT OPTION
 41
0.8005305039787929
  7
GGATT
  2
CORING
 70
     0
  0
ATTRIB
  5
51A20
  8
TITLE2
 10
-4.7124024125229571
 20
8.2055978906907452
 30
0.0
 40
0.2654791576747893
  1
STD. MOD.
 41
0.8005305039787929
  7
GGATT
  2
SIZE
 70
     0
  0
ATTRIB
  5
51A21
  8
TITLE2
 10
-1.8787468939997329
 20
8.2055978906907452
 30
0.0
 40
0.2654791576747893
  1

 41
0.8005305039787929
  7
GGATT
  2
BOND
 70
     0
  0
ATTRIB
  5
51A22
  8
TITLE2
 10
-2.7896131562606299
 20
7.4091604176664516
 30
0.0
 40
0.2654791576747862
  1
C216, FBS, SW
 41
0.8005305039787941
  7
GGATT
  2
ASTM
 70
     0
  0
ATTRIB
  5
51A23
  8
TITLE2
 10
-2.7725747609680989
 20
6.61272294464215
 30
0.0
 40
0.2654791576747862
  1
LP2-STDMOD
 41
0.8005305039787943
  7
GGATT
  2
FILE
 70
     0
  0
ATTRIB
  5
51A24
  8
TITLE2
 10
-3.5792807318773372
 20
5.8162854716178538
 30
0.0
 40
0.2654791576747862
  1
KEVIN LINDSTROM
 41
0.8005305039787947
  7
GGATT
  2
BY
 70
     0
  0
ATTRIB
  5
51A25
  8
TITLE2
 10
-2.9640595048946969
 20
9.7655657305789791
 30
0.0
 40
0.2654791576747883
  1
PLANT OPTION
 41
0.8005305039787959
  7
GGATT
  2
TEXTURE
 70
     0
  0
SEQEND
  5
51A0E
  8
TITLE2
  0
INSERT
  5
51A93
  8
OBJ
  6
CONTINUOUS
  2
*X1
 10
0.0
 20
0.0
 30
0.0
1001
GRADIENTCOLOR1ACI
1070
     5
1001
GRADIENTCOLOR2ACI
1070
     2
1001
ACAD
1000
HATCH
1002
{
1070
    19
1000
DOTS
1040
1.6379999999999999
1040
0.7853981633974483
1000
R14_HATCH_DATA
1000
51A93
1011
1.0
1021
0.0
1031
0.0
1021
0.0
1031
0.0
1011
0.0
1021
0.0
1031
0.0
1021
1.0
1031
0.0
1011
0.0
1021
0.0
1031
0.0
1021
0.0
1031
1.0
1040
0.0
1010
0.0
1020
0.0
1030
1.0
1000
DOTS
1070
     0
1070
     0
1071
        1
1071
        7
1070
     0
1070
     1
1071
        4
1040
-11.01428356404911
1040
1.159411395198453
1040
-12.47484220028535
1040
1.159411395198453
1040
-12.47484220028535
1040
0.5629343637817215
1040
-11.01428356404911
1040
0.5629343637817215
1071
        0
1070
     0
1070
     1
1040
0.7853981633974483
1040
1.6379999999999999
1070
     0
1070
     1
1040
0.7853981633974483
1040
-3.3903634078707992
1040
-10.059828409040399
1040
-0.0361950283619864
1040
0.1085850850859592
1070
     2
1040
0.0
1040
-0.102375
1040
0.0086172707574623
1071
        1
1040
-11.76050767708711
1040
0.915056321148821
1040
0.0
1002
}
  0
LINE
  5
51A94
  8
TITLE2
 10
-12.47484220028535
 20
1.159411395198453
 30
0.0
 11
-12.47484220028535
 21
0.5629343637817215
 31
0.0
  0
LINE
  5
51A95
  8
TITLE2
 10
-12.47484220028535
 20
0.5629343637817215
 30
0.0
 11
-11.01428356404911
 21
0.5629343637817215
 31
0.0
  0
LINE
  5
51A96
  8
TITLE2
 10
-11.01428356404911
 20
0.5629343637817215
 30
0.0
 11
-11.01428356404911
 21
1.159411395198453
 31
0.0
  0
LINE
  5
51A97
  8
TITLE2
 10
-11.01428356404911
 20
1.159411395198453
 30
0.0
 11
-12.47484220028535
 21
1.159411395198453
 31
0.0
  0
TEXT
  5
51A98
  8
TITLE
 10
-10.840078120260319
 20
0.7214819038112481
 30
0.0
 40
0.280345990504546
  1
INDICATES FINISHED FACES
 41
0.8005305039787876
  7
SIMPLEX
  0
LINE
  5
537F4
  8
OBJ
 10
-25.81796041021892
 20
20.656780737494199
 30
0.0
 11
-25.81796041021892
 21
13.0317807374942
 31
0.0
  0
LINE
  5
537F5
  8
OBJ
 10
-25.81796041021892
 20
13.0317807374942
 30
0.0
 11
-26.56796041021892
 21
13.0317807374942
 31
0.0
  0
LINE
  5
537F6
  8
OBJ
 10
-26.56796041021892
 20
13.0317807374942
 30
0.0
 11
-26.56796041021892
 21
13.6567807374942
 31
0.0
  0
LINE
  5
537F7
  8
OBJ
 10
-26.56796041021892
 20
13.6567807374942
 30
0.0
 11
-29.44296041021892
 21
13.6567807374942
 31
0.0
  0
LINE
  5
537F8
  8
OBJ
 10
-29.44296041021892
 20
13.6567807374942
 30
0.0
 11
-29.44296041021892
 21
20.656780737494199
 31
0.0
  0
LINE
  5
537F9
  8
OBJ
 10
-29.44296041021892
 20
20.656780737494199
 30
0.0
 11
-25.81796041021892
 21
20.656780737494199
 31
0.0
  0
LINE
  5
537FA
  8
OBJ
 10
-15.02278469152145
 20
20.656780737494199
 30
0.0
 11
-12.77278469152145
 21
20.656780737494199
 31
0.0
  0
LINE
  5
537FB
  8
OBJ
 10
-12.77278469152145
 20
13.0317807374942
 30
0.0
 11
-15.02278469152145
 21
13.0317807374942
 31
0.0
  0
LINE
  5
537FC
  8
HID
 10
-12.77278469152145
 20
13.6567807374942
 30
0.0
 11
-15.02278469152145
 21
13.6567807374942
 31
0.0
  0
LINE
  5
537FD
  8
OBJ
 10
-12.77278469152145
 20
20.656780737494199
 30
0.0
 11
-12.77278469152145
 21
13.0317807374942
 31
0.0
  0
LINE
  5
537FE
  8
OBJ
 10
-15.02278469152145
 20
20.656780737494199
 30
0.0
 11
-15.02278469152145
 21
13.0317807374942
 31
0.0
  0
LINE
  5
537FF
  8
OBJ
 10
-29.44296041021892
 20
5.8758096161701996
 30
0.0
 11
-25.81796041021892
 21
5.8758096161701996
 31
0.0
  0
LINE
  5
53800
  8
OBJ
 10
-29.44296041021892
 20
3.6258096161702
 30
0.0
 11
-29.44296041021892
 21
5.8758096161701996
 31
0.0
  0
LINE
  5
53801
  8
OBJ
 10
-25.81796041021892
 20
5.8758096161701996
 30
0.0
 11
-25.81796041021892
 21
3.6258096161702
 31
0.0
  0
LINE
  5
53802
  8
HID
 10
-26.44296041021892
 20
5.8758096161701996
 30
0.0
 11
-26.44296041021892
 21
3.6258096161702
 31
0.0
  0
LINE
  5
53803
  8
OBJ
 10
-29.44296041021892
 20
3.6258096161702
 30
0.0
 11
-25.81796041021892
 21
3.6258096161702
 31
0.0
  0
INSERT
  5
53804
  8
OBJ
  6
CONTINUOUS
  2
*X2
 10
0.0
 20
0.0
 30
0.0
1001
GRADIENTCOLOR1ACI
1070
     5
1001
GRADIENTCOLOR2ACI
1070
     2
1001
ACAD
1000
HATCH
1002
{
1070
    19
1000
DOTS
1040
1.5
1040
0.7853981633974483
1000
R14_HATCH_DATA
1000
53804
1011
1.0
1021
0.0
1031
0.0
1021
0.0
1031
0.0
1011
0.0
1021
0.0
1031
0.0
1021
1.0
1031
0.0
1011
0.0
1021
0.0
1031
0.0
1021
0.0
1031
1.0
1040
0.0
1010
0.0
1020
0.0
1030
1.0
1000
DOTS
1070
     0
1070
     0
1071
        1
1071
        7
1070
     0
1070
     1
1071
        4
1040
-12.924533653203721
1040
9.1843297907732317
1040
-10.975976494688719
1040
10.30932979077323
1040
-10.975976494688719
1040
2.6843297907732402
1040
-12.924533653203721
1040
1.559329790773232
1071
        0
1070
     1
1070
     1
1040
0.7853981633974483
1040
1.5
1070
     0
1070
     1
1040
0.7853981633974483
1040
33.147715144026151
1040
0.1051562063141123
1040
-0.0331456303681194
1040
0.0994368911043583
1070
     2
1040
0.0
1040
-0.09375
1040
0.0519636268996909
1071
        1
1040
-12.510626746985141
1040
6.5023673619775106
1040
0.0
1002
}
  0
LINE
  5
53805
  8
OBJ
 10
-12.924533653203721
 20
9.1843297907732317
 30
0.0
 11
-12.924533653203721
 21
1.559329790773232
 31
0.0
  0
LINE
  5
53806
  8
OBJ
 10
-12.924533653203721
 20
1.559329790773232
 30
0.0
 11
-10.97597649468873
 21
2.6843297907732322
 31
0.0
  0
LINE
  5
53807
  8
OBJ
 10
-10.975976494688719
 20
2.6843297907732322
 30
0.0
 11
-10.975976494688719
 21
10.30932979077323
 31
0.0
  0
LINE
  5
53808
  8
OBJ
 10
-10.975976494688719
 20
10.30932979077323
 30
0.0
 11
-12.924533653203721
 21
9.1843297907732317
 31
0.0
  0
LINE
  5
53809
  8
OBJ
 10
-12.924533653203721
 20
9.1843297907732317
 30
0.0
 11
-16.063875741922299
 21
10.99682979077323
 31
0.0
  0
LINE
  5
5380A
  8
OBJ
 10
-16.063875741922299
 20
10.99682979077323
 30
0.0
 11
-16.063875741922299
 21
3.9968297907732322
 31
0.0
  0
LINE
  5
5380B
  8
OBJ
 10
-16.063875741922299
 20
3.9968297907732322
 30
0.0
 11
-13.574052706042041
 21
2.5593297907732322
 31
0.0
  0
LINE
  5
5380C
  8
OBJ
 10
-13.574052706042041
 20
2.5593297907732322
 30
0.0
 11
-13.574052706042041
 21
1.934329790773232
 31
0.0
  0
LINE
  5
5380D
  8
OBJ
 10
-13.574052706042041
 20
1.934329790773232
 30
0.0
 11
-12.924533653203721
 21
1.559329790773232
 31
0.0
  0
LINE
  5
5380E
  8
OBJ
 10
-16.063875741922299
 20
10.99682979077323
 30
0.0
 11
-14.11531858340731
 21
12.121829790773219
 31
0.0
  0
LINE
  5
5380F
  8
OBJ
 10
-14.11531858340731
 20
12.121829790773219
 30
0.0
 11
-10.975976494688719
 21
10.309329790773219
 31
0.0
  0
LINE
  5
5381E
  8
DIM
 10
-25.81796041021892
 20
12.8442807374942
 30
0.0
 11
-25.81796041021892
 21
11.36384473057797
 31
0.0
  0
LINE
  5
5381F
  8
DIM
 10
-25.56796041021892
 20
11.54384473057797
 30
0.0
 11
-25.31796041021892
 21
11.54384473057797
 31
0.0
  0
SOLID
  5
53820
  8
DIM
 10
-25.56796041021892
 20
11.58551139724463
 30
0.0
 11
-25.56796041021892
 21
11.5021780639113
 31
0.0
 12
-25.81796041021892
 22
11.54384473057797
 32
0.0
 13
-25.81796041021892
 23
11.54384473057797
 33
0.0
  0
TEXT
  5
53821
  8
DIM
 10
-25.205419836558121
 20
11.35634473057797
 30
0.0
 40
0.375
  1
3/4"
  7
SMOOTH
 72
     1
 11
-24.750171874601591
 21
11.54384473057797
 31
0.0
 73
     2
  0
LINE
  5
53822
  8
DIM
 10
-26.56796041021892
 20
12.8442807374942
 30
0.0
 11
-26.56796041021892
 21
11.36384473057797
 31
0.0
  0
LINE
  5
53823
  8
DIM
 10
-29.44296041021892
 20
13.4692807374942
 30
0.0
 11
-29.44296041021892
 21
11.36384473057797
 31
0.0
  0
LINE
  5
53824
  8
DIM
 10
-26.81796041021892
 20
11.54384473057797
 30
0.0
 11
-26.951174695933219
 21
11.54384473057797
 31
0.0
  0
LINE
  5
53825
  8
DIM
 10
-29.19296041021892
 20
11.54384473057797
 30
0.0
 11
-29.05974612450462
 21
11.54384473057797
 31
0.0
  0
SOLID
  5
53826
  8
DIM
 10
-26.81796041021892
 20
11.58551139724463
 30
0.0
 11
-26.81796041021892
 21
11.5021780639113
 31
0.0
 12
-26.56796041021892
 22
11.54384473057797
 32
0.0
 13
-26.56796041021892
 23
11.54384473057797
 33
0.0
  0
SOLID
  5
53827
  8
DIM
 10
-29.19296041021892
 20
11.58551139724463
 30
0.0
 11
-29.19296041021892
 21
11.5021780639113
 31
0.0
 12
-29.44296041021892
 22
11.54384473057797
 32
0.0
 13
-29.44296041021892
 23
11.54384473057797
 33
0.0
  0
TEXT
  5
53828
  8
DIM
 10
-28.67826951347979
 20
11.35634473057797
 30
0.0
 40
0.375
  1
2 7/8"
  7
SMOOTH
 72
     1
 11
-28.00546041021892
 21
11.54384473057797
 31
0.0
 73
     2
  0
LINE
  5
53829
  8
DIM
 10
-26.75546041021892
 20
13.0317807374942
 30
0.0
 11
-31.32903089057594
 21
13.0317807374942
 31
0.0
  0
LINE
  5
5382A
  8
DIM
 10
-31.14903089057594
 20
12.7817807374942
 30
0.0
 11
-31.14903089057594
 21
12.5317807374942
 31
0.0
  0
LINE
  5
5382B
  8
DIM
 10
-31.14903089057594
 20
12.5317807374942
 30
0.0
 11
-31.39903089057594
 21
12.5317807374942
 31
0.0
  0
SOLID
  5
5382C
  8
DIM
 10
-31.190697557242618
 20
12.7817807374942
 30
0.0
 11
-31.107364223909279
 21
12.7817807374942
 31
0.0
 12
-31.14903089057594
 22
13.0317807374942
 32
0.0
 13
-31.14903089057594
 23
13.0317807374942
 33
0.0
  0
TEXT
  5
5382D
  8
DIM
 10
-32.3979805665954
 20
12.3442807374942
 30
0.0
 40
0.375
  1
5/8"
  7
SMOOTH
 72
     1
 11
-31.94273260463887
 21
12.5317807374942
 31
0.0
 73
     2
  0
LINE
  5
5382E
  8
DIM
 10
-15.02278469152145
 20
20.844280737494199
 30
0.0
 11
-14.999523608332421
 21
22.200205117739479
 31
0.0
  0
LINE
  5
5382F
  8
DIM
 10
-12.77278469152145
 20
20.844280737494199
 30
0.0
 11
-12.749523608332421
 21
22.200205117739479
 31
0.0
  0
LINE
  5
53830
  8
DIM
 10
-15.249523608332421
 20
22.020205117739479
 30
0.0
 11
-15.499523608332421
 21
22.020205117739479
 31
0.0
  0
LINE
  5
53831
  8
DIM
 10
-12.499523608332421
 20
22.020205117739479
 30
0.0
 11
-12.249523608332421
 21
22.020205117739479
 31
0.0
  0
SOLID
  5
53832
  8
DIM
 10
-15.249523608332421
 20
22.061871784406151
 30
0.0
 11
-15.249523608332421
 21
21.978538451072819
 31
0.0
 12
-14.999523608332421
 22
22.020205117739479
 32
0.0
 13
-14.999523608332421
 23
22.020205117739479
 33
0.0
  0
SOLID
  5
53833
  8
DIM
 10
-12.499523608332421
 20
22.061871784406151
 30
0.0
 11
-12.499523608332421
 21
21.978538451072819
 31
0.0
 12
-12.749523608332421
 22
22.020205117739479
 32
0.0
 13
-12.749523608332421
 23
22.020205117739479
 33
0.0
  0
TEXT
  5
53834
  8
DIM
 10
-16.968054168484151
 20
21.832705117739479
 30
0.0
 40
0.375
  1
2 1/4"
  7
SMOOTH
 72
     1
 11
-16.295245065223281
 21
22.020205117739479
 31
0.0
 73
     2
  0
LINE
  5
53835
  8
DIM
 10
-15.21028469152145
 20
20.656780737494199
 30
0.0
 11
-17.023885947368029
 21
20.656780737494199
 31
0.0
  0
LINE
  5
53836
  8
DIM
 10
-15.21028469152145
 20
13.0317807374942
 30
0.0
 11
-17.023885947368029
 21
13.0317807374942
 31
0.0
  0
LINE
  5
53837
  8
DIM
 10
-16.843885947368019
 20
20.406780737494199
 30
0.0
 11
-16.843885947368019
 21
17.121780737494198
 31
0.0
  0
LINE
  5
53838
  8
DIM
 10
-16.843885947368019
 20
13.2817807374942
 30
0.0
 11
-16.843885947368019
 21
16.566780737494199
 31
0.0
  0
SOLID
  5
53839
  8
DIM
 10
-16.88555261403469
 20
20.406780737494199
 30
0.0
 11
-16.802219280701362
 21
20.406780737494199
 31
0.0
 12
-16.843885947368019
 22
20.656780737494199
 32
0.0
 13
-16.843885947368019
 23
20.656780737494199
 33
0.0
  0
SOLID
  5
5383A
  8
DIM
 10
-16.88555261403469
 20
13.2817807374942
 30
0.0
 11
-16.802219280701362
 21
13.2817807374942
 31
0.0
 12
-16.843885947368019
 22
13.0317807374942
 32
0.0
 13
-16.843885947368019
 23
13.0317807374942
 33
0.0
  0
TEXT
  5
5383B
  8
DIM
 10
-17.51669505062889
 20
16.656780737494199
 30
0.0
 40
0.375
  1
7 5/8"
  7
SMOOTH
 72
     1
 11
-16.843885947368019
 21
16.844280737494199
 31
0.0
 73
     2
  0
LINE
  5
5383C
  8
DIM
 10
-25.63046041021892
 20
20.656780737494199
 30
0.0
 11
-23.64400549257283
 21
20.656780737494199
 31
0.0
  0
LINE
  5
5383D
  8
DIM
 10
-25.63046041021892
 20
13.0317807374942
 30
0.0
 11
-23.64400549257283
 21
13.0317807374942
 31
0.0
  0
LINE
  5
5383E
  8
DIM
 10
-23.824005492572841
 20
20.406780737494199
 30
0.0
 11
-23.824005492572841
 21
17.121780737494198
 31
0.0
  0
LINE
  5
5383F
  8
DIM
 10
-23.824005492572841
 20
13.2817807374942
 30
0.0
 11
-23.824005492572841
 21
16.566780737494199
 31
0.0
  0
SOLID
  5
53840
  8
DIM
 10
-23.865672159239519
 20
20.406780737494199
 30
0.0
 11
-23.78233882590618
 21
20.406780737494199
 31
0.0
 12
-23.824005492572841
 22
20.656780737494199
 32
0.0
 13
-23.824005492572841
 23
20.656780737494199
 33
0.0
  0
SOLID
  5
53841
  8
DIM
 10
-23.865672159239519
 20
13.2817807374942
 30
0.0
 11
-23.78233882590618
 21
13.2817807374942
 31
0.0
 12
-23.824005492572841
 22
13.0317807374942
 32
0.0
 13
-23.824005492572841
 23
13.0317807374942
 33
0.0
  0
TEXT
  5
53842
  8
DIM
 10
-24.496814595833708
 20
16.656780737494199
 30
0.0
 40
0.375
  1
7 5/8"
  7
SMOOTH
 72
     1
 11
-23.824005492572841
 21
16.844280737494199
 31
0.0
 73
     2
  0
LINE
  5
53843
  8
DIM
 10
-29.63046041021892
 20
20.656780737494199
 30
0.0
 11
-31.32903089057594
 21
20.656780737494199
 31
0.0
  0
LINE
  5
53844
  8
DIM
 10
-29.63046041021892
 20
13.6567807374942
 30
0.0
 11
-31.32903089057594
 21
13.6567807374942
 31
0.0
  0
LINE
  5
53845
  8
DIM
 10
-31.14903089057594
 20
20.406780737494199
 30
0.0
 11
-31.14903089057594
 21
17.434280737494198
 31
0.0
  0
LINE
  5
53846
  8
DIM
 10
-31.14903089057594
 20
13.9067807374942
 30
0.0
 11
-31.14903089057594
 21
16.879280737494199
 31
0.0
  0
SOLID
  5
53847
  8
DIM
 10
-31.190697557242618
 20
20.406780737494199
 30
0.0
 11
-31.107364223909279
 21
20.406780737494199
 31
0.0
 12
-31.14903089057594
 22
20.656780737494199
 32
0.0
 13
-31.14903089057594
 23
20.656780737494199
 33
0.0
  0
SOLID
  5
53848
  8
DIM
 10
-31.190697557242618
 20
13.9067807374942
 30
0.0
 11
-31.107364223909279
 21
13.9067807374942
 31
0.0
 12
-31.14903089057594
 22
13.6567807374942
 32
0.0
 13
-31.14903089057594
 23
13.6567807374942
 33
0.0
  0
TEXT
  5
53849
  8
DIM
 10
-31.386717711228108
 20
16.969280737494199
 30
0.0
 40
0.375
  1
7"
  7
SMOOTH
 72
     1
 11
-31.14903089057594
 21
17.156780737494199
 31
0.0
 73
     2
  0
LINE
  5
5384A
  8
DIM
 10
-29.63046041021892
 20
5.8758096161701996
 30
0.0
 11
-31.319573679907421
 21
5.8758096161701996
 31
0.0
  0
LINE
  5
5384B
  8
DIM
 10
-29.63046041021892
 20
3.6258096161702
 30
0.0
 11
-31.319573679907421
 21
3.6258096161702
 31
0.0
  0
LINE
  5
5384C
  8
DIM
 10
-31.139573679907439
 20
5.6258096161701996
 30
0.0
 11
-31.139573679907439
 21
5.0283096161701959
 31
0.0
  0
LINE
  5
5384D
  8
DIM
 10
-31.139573679907439
 20
3.8758096161702
 30
0.0
 11
-31.139573679907439
 21
4.4733096161701971
 31
0.0
  0
SOLID
  5
5384E
  8
DIM
 10
-31.181240346574089
 20
5.6258096161701996
 30
0.0
 11
-31.097907013240778
 21
5.6258096161701996
 31
0.0
 12
-31.139573679907439
 22
5.8758096161701996
 32
0.0
 13
-31.139573679907439
 23
5.8758096161701996
 33
0.0
  0
SOLID
  5
5384F
  8
DIM
 10
-31.181240346574089
 20
3.8758096161702
 30
0.0
 11
-31.097907013240778
 21
3.8758096161702
 31
0.0
 12
-31.139573679907439
 22
3.6258096161702
 32
0.0
 13
-31.139573679907439
 23
3.6258096161702
 33
0.0
  0
TEXT
  5
53850
  8
DIM
 10
-31.81238278316831
 20
4.5633096161701996
 30
0.0
 40
0.375
  1
2 1/4"
  7
SMOOTH
 72
     1
 11
-31.139573679907439
 21
4.7508096161701996
 31
0.0
 73
     2
  0
LINE
  5
53851
  8
DIM
 10
-29.44296041021892
 20
6.0633096161701996
 30
0.0
 11
-29.44296041021892
 21
7.4429770150657566
 31
0.0
  0
LINE
  5
53852
  8
DIM
 10
-25.81796041021892
 20
6.0633096161701996
 30
0.0
 11
-25.81796041021892
 21
7.4429770150657566
 31
0.0
  0
LINE
  5
53853
  8
DIM
 10
-29.19296041021892
 20
7.2629770150657569
 30
0.0
 11
-28.43315232597979
 21
7.2629770150657569
 31
0.0
  0
LINE
  5
53854
  8
DIM
 10
-26.06796041021892
 20
7.2629770150657569
 30
0.0
 11
-26.827768494458049
 21
7.2629770150657569
 31
0.0
  0
SOLID
  5
53855
  8
DIM
 10
-29.19296041021892
 20
7.3046436817324238
 30
0.0
 11
-29.19296041021892
 21
7.2213103483990899
 31
0.0
 12
-29.44296041021892
 22
7.2629770150657569
 32
0.0
 13
-29.44296041021892
 23
7.2629770150657569
 33
0.0
  0
SOLID
  5
53856
  8
DIM
 10
-26.06796041021892
 20
7.3046436817324238
 30
0.0
 11
-26.06796041021892
 21
7.2213103483990899
 31
0.0
 12
-25.81796041021892
 22
7.2629770150657569
 32
0.0
 13
-25.81796041021892
 23
7.2629770150657569
 33
0.0
  0
INSERT
  5
53857
  8
DIM
  2
*U3
 10
0.0
 20
0.0
 30
0.0
  0
LINE
  5
53858
  8
DIM
 10
-29.44296041021892
 20
20.844280737494199
 30
0.0
 11
-29.44296041021892
 21
22.223948136389762
 31
0.0
  0
LINE
  5
53859
  8
DIM
 10
-25.81796041021892
 20
20.844280737494199
 30
0.0
 11
-25.81796041021892
 21
22.223948136389762
 31
0.0
  0
LINE
  5
5385A
  8
DIM
 10
-29.19296041021892
 20
22.043948136389758
 30
0.0
 11
-28.43315232597979
 21
22.043948136389758
 31
0.0
  0
LINE
  5
5385B
  8
DIM
 10
-26.06796041021892
 20
22.043948136389758
 30
0.0
 11
-26.827768494458049
 21
22.043948136389758
 31
0.0
  0
SOLID
  5
5385C
  8
DIM
 10
-29.19296041021892
 20
22.08561480305643
 30
0.0
 11
-29.19296041021892
 21
22.002281469723091
 31
0.0
 12
-29.44296041021892
 22
22.043948136389758
 32
0.0
 13
-29.44296041021892
 23
22.043948136389758
 33
0.0
  0
SOLID
  5
5385D
  8
DIM
 10
-26.06796041021892
 20
22.08561480305643
 30
0.0
 11
-26.06796041021892
 21
22.002281469723091
 31
0.0
 12
-25.81796041021892
 22
22.043948136389758
 32
0.0
 13
-25.81796041021892
 23
22.043948136389758
 33
0.0
  0
INSERT
  5
5385E
  8
DIM
  2
*U4
 10
0.0
 20
0.0
 30
0.0
  0
ENDSEC
  0
EOF
